>
 >
Lead Us Home

Lead Us Home Guitar Tabs

Demon Hunter - Lead Us Home chords, tabs, tablatures, lyrics

Guitar lessons | Add/correct | Request | Top 50 tabs Artists:  A B C D E F G H I J K L M N O P Q R S T U V W X Y Z 0-9

Lead Us Home Guitar Tabs – Demon Hunter

CD, Sheet music, Poster

Do you like Lead Us Home? Share with your friends now
Tabs
Band: Demon Hunter
Tunning: Drop B (B-F#-B-E-G#-C#)

!NOTICE!
As a notice to everyone, this whole album(STGOH) Is in Drop B
And also, I'll be doing more of STGOH tabs, infact, I plan on
doing the whole album! =D
But I'm extremely lazy and procrastinate like no other so 
The tabs should be up soon! Hah.

=========================================||
----------==|LEAD US HOME|==-------------||
=========================================||
Track: Lead Us Home
Track Number: 02
Duration: 4:24
Guitar Tunning: Drop B (B F# B E G# C#)
Bass Tunning: Drop B (B F# B E)
Effects Used: 
Techniques Used:
Instruments/Musicians: Ethan Luck; Lead Guitar,
Don Clark; Rythem Guitar,
Additional Song Notes: 

-Didn't feel like tabbing the bass
Just play the root notes of Dons parts,
its pretty much the complete bass.
Except the verse, Jon is playing something I'm to lazy to figure out

-Ethan = Right Channel
-Don = Left Channel

-I tabbed the vocal melodies for the chorus
and the outro chorus! They're at the bottom 
of the page under the lyrics.


Tab Legend:
/ = slide up
\ = slide down
. = Palm Mute
* = Pinched Harmonic
~ = Vibrato
b = Slight bend

============--\\\\\\\\\\\\\\\\\\\\\\\\\\\\\\\\\\\\\\\\\\\\\\\\\\\\\\\\\\\\\
INTRO==---|================================================================
============--/////////////////////////////////////////////////////////////
0:04
(Short intro, Guitars kick in here)
Ethan - Lead
G#||---------------------------------------------------------------------||
C#||---------------------------------------------------------------------||
E ||-6-6-6-6-6-6-6-6-6-6-6-6-6-6-6-6-13-13-13-13-13-13-13-13-13-13-13-13-||
B ||-x-x-x-x-x-x-x-x-x-x-x-x-x-x-x-x-x--x--x--x--x--x--x--x--x--x--x--x--||
F#||-4-4-4-4-4-4-4-4-4-4-4-4-4-4-4-4-11-11-11-11-11-11-11-11-11-11-11-11-||
B ||---------------------------------------------------------------------|| 

Ethan - Lead(cont'd)
G#||--------------||
C#||--------------||
E ||-13-13-13-13--||
B ||-x--x--x--x---||
F#||-11-11-11-11--||
B ||--------------|| X2

Don - Rythem
(On the 4th time, play it open(No Palm mute) )
G#||---------------------------------||
C#||---------------------------------||
E ||---------------------------------||
B ||---------------------------------||
F#||-1---3---1---3---1---3---1---3---||
B ||-1-0-3-0-1-0-3-0-1-0-3-0-1-0-3-0-|| X4
     . . . . . . . . . . . . . . . .

Additional Guitars:
(This guitar can be heard faintly but it's there)
G#||-------------------------------------------------||
C#||-------------------------------------------------||
E ||-14-14-14-14-14-14-14-14-14-14-14-14-14-14-14-14-||
B ||-x--x--x--x--x--x--x--x--x--x--x--x--x--x--x--x--||
F#||-12-12-12-12-12-12-12-12-12-12-12-12-12-12-12-12-||
B ||-------------------------------------------------|| X4

============--\\\\\\\\\\\\\\\\\\\\\\\\\\\\\\\\\\\\\\\\\\\\\\\\\\\\\\\\\\\\\
PREVERSE/BREAKDOWN==---|===================================================
============--/////////////////////////////////////////////////////////////

0:14

Ethan - Lead
G#||-----------------------------------------------------------------||
C#||-----------------------------------------------------------------||
E ||-----------------------------------------------------------------||
B ||-----------------------------------------------------------------||
F#||-------------------0-5-8-4-7-3-6-5-6-5-0-4-3-0-1---0-------------||
B ||-------------------0-5-8-4-7-3-6-5-6-5-0-4-3-0-1---0-5-8-4-7-3-6-||
                       . . . . . . .                   .

Don - Rythem
G#||-----------------------------------------------------------------||
C#||-----------------------------------------------------------------||
E ||-----------------------------------------------------------------||
B ||-----------------------------------------------------------------||
F#||-5-6-5-0-4-3-0-1---0-5-8-4-7-3-6-5-6-5-0-4-3-0-1---0-------------||
B ||-5-6-5-0-4-3-0-1---0-5-8-4-7-3-6-5-6-5-0-4-3-0-1---0-5-8-4-7-3-6-||
                       . . . . . . .                   .

0:20
Both Guitars
G#||-----------------------------------------------------------------||
C#||-----------------------------------------------------------------||
E ||-----------------------------------------------------------------||
B ||-----------------------------------------------------------------||
F#||-5-6-5-0-4-3-0-1---0-5-8-4-7-3-6-5-6-5-0-4-3-0-1---0-------------||
B ||-5-6-5-0-4-3-0-1---0-5-8-4-7-3-6-5-6-5-0-4-3-0-1---0-5-8-4-7-3-6-||
                       . . . . . . .                   .

Breakdown!
0:25
Both Guitars
G#||-----------------------------------------------------------------||
C#||-----------------------------------------------------------------||
E ||-----------------------------------------------------------------||
B ||-----------------------------------------------------------------||
F#||-5-6-5-0-4-3-0-1---0-5-8-4-7-3-6-5-6-5-0-4-3-0-1---0-------------||
B ||-5-6-5-0-4-3-0-1---0-5-8-4-7-3-6-5-6-5-0-4-3-0-1---0-5-8-4-7-3-6-|| X2
                       . . . . . . .                   .

============--\\\\\\\\\\\\\\\\\\\\\\\\\\\\\\\\\\\\\\\\\\\\\\\\\\\\\\\\\\\\\
VERSE==---|===============================================================
============--/////////////////////////////////////////////////////////////

0:35
Don - Rythem
(It's hard to hear the notes, but he's playing them)
(Grouped notes are triplets)
G#||-----------------------------||
C#||-----------------------------||
E ||-----------------------------||
B ||-----------------------------||
F#||-----------------------------||
B ||-0-0-0-350-0-0-0-0-2-0-0-320-||
     . . . ... . . . . . . . ...

0:37
Both Guitars:
   "One more day..."
G#||-----------------------------||
C#||-----------------------------||
E ||-----------------------------||
B ||-----------------------------||
F#||-----------------------------||
B ||-0-0-0-350-0-0-0-0-2-0-0-320-|| X4
     . . . ... . . . . . . . ...

============--\\\\\\\\\\\\\\\\\\\\\\\\\\\\\\\\\\\\\\\\\\\\\\\\\\\\\\\\\\\\\
PRECHORUS==---|============================================================
============--/////////////////////////////////////////////////////////////

THIS WHOLE SECTION IS PLAYING TWICE(X2)
LISTEN TO SONG IF YOU'RE LOST

0:48
Ethan - Lead
   "Give myself to compromise..."
G#||---------------------------------||
C#||---------------------------------||
E ||---------------------------------||
B ||---------------------------------||
F#||-----7/9-9-----9-9-9-10-10-12-12-||
B ||-0-0-------0-0-------------------|| X3
     . .       . .

Don - Rythem
G#||-----------------------------||
C#||-----------------------------||
E ||-----------------------------||
B ||-----------------------------||
F#||-----3/5-5-----5-5-5-6-6-8-8-||
B ||-0-0-------0-0---------------|| X3
     . .       . .

0:56
Ethan - Lead
   "I've bled to know them all..."
G#||-----------------------------||
C#||-----------------------------||
E ||-----------------------------||
B ||-----------------------------||
F#||-----7/9-9---1-1-1-1-1-1-1-1-||
B ||-0-0-------0-1-1-1-1-1-1-1-1-|| 
     . .       .

Don - Rythem
G#||-----------------------------||
C#||-----------------------------||
E ||-----------------------------||
B ||-----------------------------||
F#||-----3/5-5---1-1-1-1-1-1-1-1-||
B ||-0-0-------0-1-1-1-1-1-1-1-1-|| 
     . .       .

============--\\\\\\\\\\\\\\\\\\\\\\\\\\\\\\\\\\\\\\\\\\\\\\\\\\\\\\\\\\\\\
CHORUS==---|===============================================================
============--/////////////////////////////////////////////////////////////

1:08
(The blank measure is just vocals, That means
when you repeat, you just repeat the measure with
playing in it. Trust me, people ask obvious things...)
Both Guitars:
   "Lead us... Home!"
                                                           "Lead us..."       

                
G#||-------|-------------------------------------------------------------||
C#||-------|-------------------------------------------------------------||
E ||-------|-------------------------------------------------------------||
B ||-------|-5-5-5-5-5-5-5-7-7-7-7-7-7-7-1-1-1-1-1-1-1-1-1-1-1-1-1-1-1-1-||
F#||-------|-5-5-5-5-5-5-5-7-7-7-7-7-7-7-1-1-1-1-1-1-1-1-1-1-1-1-1-1-1-1-||
B ||-------|-5-5-5-5-5-5-5-7-7-7-7-7-7-7-1-1-1-1-1-1-1-1-1-1-1-1-1-1-1-1-|| 

X2

Additional Guitar:
(again, can be faintly heard)
G#||-------|-15------------17------------11--------------||
C#||-------|---------------------------------------------||
E ||-------|---------------------------------------------||
B ||-------|---------------------------------------------||
F#||-------|---------------------------------------------||
B ||-------|---------------------------------------------|| X2
 
1:20
Both Guitars:
  "-Failiing now, from the inside out..."
G#||-------------------------------------------------------||
C#||-------------------------------------------------------||
E ||-------------------------------------------------------||
B ||-8--8--8----3--3--3----8-8-8-8-8-8-8-8-3-3-3-3-3-3-3-3-||
F#||-8--8--8----3--3--3----8-8-8-8-8-8-8-8-3-3-3-3-3-3-3-3-||
B ||-8--8--8----3--3--3----8-8-8-8-8-8-8-8-3-3-3-3-3-3-3-3-||

Aditional Guitar:
(Like the last one, it plays over the above riff)
G#||-18-18-18-18-18-18-18-18-13-13-13-13-13-13-13-13-||
C#||-x--x--x--x--x--x--x--x--x--x--x--x--x--x--x--x--||
E ||-15-15-15-15-15-15-15-15-10-10-10-10-10-10-10-10-||
B ||-------------------------------------------------||
F#||-------------------------------------------------||
B ||-------------------------------------------------|| X2

1:32
Both Guitars:
(Again, those are 1's that are triplets)
    "Home..."
G#||------------------------------||
C#||------------------------------||
E ||------------------------------||
B ||-111-1-1-1-1-1--111-1-1-1-1-1-||
F#||-111-1-1-1-1-1--111-1-1-1-1-1-||
B ||-111-1-1-1-1-1--111-1-1-1-1-1-||
     ...            ...

Additional Guitar:
G#||-------------------------------------------------||
C#||-16-16-16-16-16-16-16-16-16-16-16-16-16-16-16-16-||
E ||-x--x--x--x--x--x--x--x--x--x--x--x--x--x--x--x--||
B ||-13-13-13-13-13-13-13-13-13-13-13-13-13-13-13-13-||
F#||-------------------------------------------------||
B ||-------------------------------------------------||

============--\\\\\\\\\\\\\\\\\\\\\\\\\\\\\\\\\\\\\\\\\\\\\\\\\\\\\\\\\\\\\
PREVERSE/VERSE 2==---|=====================================================
============--/////////////////////////////////////////////////////////////

1:37
Both Guitars
G#||-----------------------------------------------------------------||
C#||-----------------------------------------------------------------||
E ||-----------------------------------------------------------------||
B ||-----------------------------------------------------------------||
F#||-5-6-5-0-4-3-0-1---0-5-8-4-7-3-6-5-6-5-0-4-3-0-1---0-------------||
B ||-5-6-5-0-4-3-0-1---0-5-8-4-7-3-6-5-6-5-0-4-3-0-1---0-5-8-4-7-3-6-||
                       . . . . . . .                   .

0:42
Both Guitars:
   "One more time, This day I kill..."
G#||-----------------------------||
C#||-----------------------------||
E ||-----------------------------||
B ||-----------------------------||
F#||-----------------------------||
B ||-0-0-0-350-0-0-0-0-2-0-0-320-|| X2
     . . . ... . . . . . . . ...
1:47
Ethan - Lead
    "Take  back  What's mine..."
G#||-----------------------------||
C#||-----------------------------||
E ||-----------------------------||
B ||-----------------------------||
F#||-1-0---4-0---3-0-1-0---------||
B ||-1-0---4-0---3-0-1-0---------||

Don Rythem
G#||-----------------------------||
C#||-----------------------------||
E ||-----------------------------||
B ||-----------------------------||
F#||-----------------------------||
B ||-0-0-0-350-0-0-0-0-2-0-0-320-|| 
     . . . ... . . . . . . . ...

1:50
Both Guitars: 
   "-And give disgrace a name..."
G#||-----------------------------||
C#||-----------------------------||
E ||-----------------------------||
B ||-----------------------------||
F#||-----------------------------||
B ||-0-0-0-350-0-0-0-0-2-0-0-320-|| 
     . . . ... . . . . . . . ...

1:52
REPEAT PRE CHORUS

2:15
REPEAT CHORUS

============--\\\\\\\\\\\\\\\\\\\\\\\\\\\\\\\\\\\\\\\\\\\\\\\\\\\\\\\\\\\\\
BRIDGE==---|===============================================================
============--/////////////////////////////////////////////////////////////

2nd Chorus Extention:
2:41
Both Guitars:
G#||---------------------||
C#||---------------------||
E ||---------------------||
B ||---------------------||
F#||-0000-0--0--0--0--0--||
B ||-0000-0--0--0--0--0--|| 
     ....

-Now the bridge starts

2:43
Both Guitars:
   "Blessed hands will tear me..."
G#||----------------||
C#||----------------||
E ||----------------||
B ||----------------||
F#||-0--0-0--0-0--0-||
B ||-0--0-0--0-0--0-|| X4
     .  . .  . .  .

2:53
Ethan - Lead
G#||----------------------------------||
C#||----------------------------------||
E ||----------------------------------||
B ||-7p0-7h8p7p0-7p0--7p0-7h8p7p0-7p0-||
F#||----------------------------------||
B ||----------------------------------|| X2

2:56
Ethan - Lead
G#||----------------------------------||
C#||----------------------------------||
E ||----------------------------------||
B ||-6p0-6h7p6p0-6p0--6p0-6h7p6p0-6p0-||
F#||----------------------------------||
B ||----------------------------------|| X2

2:59
Ethan - Lead
G#||-------------------------------------||
C#||-------------------------------------||
E ||-------------------------------------||
B ||-0-12h13-0-10h12-0-8h10-0-7h8-0-5h7--||
F#||-------------------------------------||
B ||-------------------------------------|| X2

Don - Rythem
(Play this the whole time Ethan plays
the his lead)
G#||----------------||
C#||----------------||
E ||----------------||
B ||----------------||
F#||-0--0-0--0-0--0-||
B ||-0--0-0--0-0--0-|| X4
     .  . .  . .  .

3:05
Ethan - Lead
(Use A whammy bar and slowly dive down)
G#||-------------------------------------||
C#||-------------------------------------||
E ||-------------------------------------||
B ||-------------------------------------||
F#||-5-----------------------------------||
B ||-------------------------------------||

Don - Rythem
G#||-------------------------||
C#||-------------------------||
E ||-------------------------||
B ||-------------------------||
F#||-0--0-0--0-0--0---0--0-0-||
B ||-0--0-0--0-0--0---0--0-0-||
     .  . .  . .  .    

3:10
REPEAT CHORUS 

============--\\\\\\\\\\\\\\\\\\\\\\\\\\\\\\\\\\\\\\\\\\\\\\\\\\\\\\\\\\\\\
ENDING CHORUS==---|========================================================
============--/////////////////////////////////////////////////////////////

3:36
Both Guitars:
   "Home..."               "Lead us..."
G#||--------------------------------||
C#||--------------------------------||
E ||--------------------------------||
B ||--------------------------------||
F#||-5--5-5--7-7--7--1--1-1--1-1--1-||
B ||-5--5-5--7-7--7--1--1-1--1-1--1-|| X2
     .  . .  . .  .  .  . .  . .  .

3:46
Both Guitars:
  "-Faling now, From the Inside Out..."
                                  "Lead Us..."
G#||------------------------------||
C#||------------------------------||
E ||------------------------------||
B ||-8-------------------3--------||
F#||-8-------------------3--------||
B ||-8-------------------3--------||

3:51
Both Guitars:
   "Home..."
G#||-----------------------------------------------------------------||
C#||-----------------------------------------------------------------||
E ||-----------------------------------------------------------------||
B ||-----------------------------------------------------------------||
F#||-----------------------------------------------------------------||
B ||-8-8-8-8-8-8-8-8-8-8-8-8-8-8-8-8-3-3-3-3-3-3-3-3-3-3-3-3-3-3-3-3-||
     . . . . . . . . . . . . . . . . . . . . . . . . . . . . . . . .

3:56
Both Guitars:
                                   "Lead us..."
G#||---------------------------------------||
C#||---------------------------------------||
E ||---------------------------------------||
B ||-----1--1--1--1--1------1--1--1--1--1--||
F#||-1-1-1--1--1--1--1--1-1-1--1--1--1--1--||
B ||-1-1-1--1--1--1--1--1-1-1--1--1--1--1--||
     . .                . .  

============--\\\\\\\\\\\\\\\\\\\\\\\\\\\\\\\\\\\\\\\\\\\\\\\\\\\\\\\\\\\\\
OUTRO==---|================================================================
============--/////////////////////////////////////////////////////////////

4:02
Both Guitars:
(Let the chords ring out, especially the last one)
   "Home..."
G#||---------------------------------------------------||
C#||---------------------------------------------------||
E ||---------------------------------------------------||
B ||-8--------3--------1-------------------------------||
F#||-8--------3--------1-------------------------------||
B ||-8--------3--------1-------------------------------||




Song Lyrics:
One more day, this time I'll bite the bullet
Let me stay, and set this life ablaze

Give myself to compromise
And let the hammer fall
I've bled to know them all
Driven to the brink of death
I heed deceptions call
Through bitter tears, forgotten years
I've come to sever all

Lead us home
Lead us home
Our tired hearts are failing now
Lead us home

One more time, this day I kill the witness
Take back what's mine, and give disgrace a name

Give myself to compromise
And let the hammer fall
I've bled to know them all
Driven to the brink of death
I heed deceptions call
Through bitter tears, forgotten years
I've come to sever all 

Lead us home
Lead us home
Our tired hearts are failing now
Lead us home

Blessed hands will tear me off
and break me at the wrist
Drag me back to solid ground
Slay the fate I kiss

Lead us home
Lead us home
Our tired hearts are failing now
Lead us home

Lead us home
Lead us home
Our tired hearts are failing now
Lead us home

Lead us home 


VOCAL MELODIES:
============--\\\\\\\\\\\\\\\\\\\\\\\\\\\\\\\\\\\\\\\\\\\\\\\\\\\\\\\\\\\\\
CHORUS==---|===============================================================
============--/////////////////////////////////////////////////////////////

Vocals 1
    "Lead Us home..."
G#||-----------------------------||
C#||-----------------------------||
E ||-----------------------------||
B ||-----------------------------||
F#||--13--12-10--12--------------||
B ||-----------------13----------||

Vocals 2
            "home..."     
G#||-----------------------------||
C#||-----------------------------||
E ||-----------------------------||
B ||---------12---15---13--------||
F#||-----------------------------||
B ||-----------------------------||



Vocals 1
    "Lead Us home..."
G#||-----------------------------||
C#||-----------------------------||
E ||-----------------------------||
B ||-----------------------------||
F#||--12--11-9---7---6-----------||
B ||-----------------------------||

Vocals 2
            "home..."     
G#||-----------------------------||
C#||-----------------------------||
E ||-----------------------------||
B ||---------12---10-------------||
F#||-------------------13--------||
B ||-----------------------------||


Vocals 1
    "Our tired hearts are failing now, from the inside out"
                                                         "Lead us"
G#||--------------------------------------------------------------||
C#||-----16-15-13---------15-----------15-------------------------||
E ||------------------15------15------------15--17--14----15---17-||
B ||-13---------------------------15-------------------15---------||
F#||--------------------------------------------------------------||
B ||--------------------------------------------------------------||


Vocals 1
    "home..."
G#||-----------------------------||
C#||-----------------------------||
E ||-15-----14-----12------------||
B ||-----------------------------||
F#||-----------------------------||
B ||-----------------------------||

Vocals 2
    "home..."
G#||-----------------------------||
C#||-----------------------------||
E ||-----------------------------||
B ||-12--15-----15---------------||
F#||--------15-----13------------||
B ||-----------------------------||

That's all of it. It just repeats in the other chorus except the last
one where there is a few different things.
============--\\\\\\\\\\\\\\\\\\\\\\\\\\\\\\\\\\\\\\\\\\\\\\\\\\\\\\\\\\\\\
ENDING CHORUS/OUTRO==---|==================================================
============--/////////////////////////////////////////////////////////////

Vocals 1
    "Our tired hearts are failing now, from the inside out"
                                                         "Lead us"
G#||--------------------------------------------------------------||
C#||-----16-15-13---------15-----------15-------------------------||
E ||------------------15------15------------15--17--14----15---17-||
B ||-13---------------------------15-------------------15---------||
F#||--------------------------------------------------------------||
B ||--------------------------------------------------------------||

Vocals 2
                          "failing now"        "inside out"
G#||--------------------------------------------------------||
C#||--------------------------------------------------------||
E ||--------------------------------------------------------||
B ||----------------------12--------------------15----------||
F#||--------------------------13------------------15-12-----||
B ||------------------------------15-------------------15---||


OUTRO PART:

Vocals 1
    "home"
G#||-----------------------------||
C#||-----------------------------||
E ||-15----14----12--------------||
B ||-----------------------------||
F#||-----------------------------||
B ||-----------------------------||

Vocals 2
    "home"
G#||-----------------------------||
C#||-----------------------------||
E ||-----------------------------||
B ||-15----15----13--------------||
F#||----13----12-----------------||
B ||-----------------------------||


And that's it! Enjoy guys! Comment and Rate! I'll 
probably be fixing up the tab to in the future if
there is any mistakes! Thanks!





Comments


Popular Demon Hunter tabs & chords
Heartstrings Come Undone Bass Tabs
My Throat Is An Open Grave Bass Tabs
Dead Flowers Chords
Collapsing Tabs
Fire To My Soul Tabs
One Thousand Apologies 1 Tabs
One Thousand Apologies 2 Tabs
Ribcage Tabs
Summer Of Darkness Tabs
I Am A Stone Ukulele


Song lyrics



↑ Back to top | Tablatures and chords are parodies/interpretations of the original songs. You may use it for private study, scholarship, research or language learning purposes only
© 2014 AZChords.com Contact us | Privacy policy | DMCA | Add/correct tabs | Request tabs | Top 50 tabs