» » »

Demon Hunter, I Play Dead Tabs (ver.1)

Artists:  A B C D E F G H I J K L M N O P Q R S T U V W X Y Z # 

I Play Dead Tabs (ver.1)

Demon Hunter Tabs
Rating:
5/5 (10 votes)
I Play Dead lessons Tabs too difficult? Try these video lessons and learn fast
                Tuning: Dropped B

   One of the best DH songs in my opinion. Please rate and enjoy!

            Intro
[ Guitar1 (distortion)
[ Db]-----------------------------------------|
[ Ab]-----------------------------------------|
[ E ]-----------------------------------------|
[ B ]--2--4--5---12--10------7--------2-------|
[ Gb]--2--4--5---12--10------7--------2-------|
[ B ]--2--4--5---12--10------7--------2-------|
[
[ Guitar2 (Clean) play until 0:42
[ Db]------------7------------------------------|
[ Ab]-------------------------------------------|
[ E ]----------------9--------------------------|
[ B ]-------------------------------------------|
[ Gb]--7----10----------------------------------|
[ B ]-------------------------------------------|

Guitar 1  0:42-1:10  pre-Chorus
Db]----------------------------------------------------|
Ab]----------------------------------------------------|
E ]----------------------------------------------------|
B ]--2-2\---2-2\---2-2\---1-1-0--1-1-0--1-1-0--1-1-0---|
Gb]--2-2\---2-2\---2-2\---1-1-0--1-1-0--1-1-0--1-1-0---|
B ]--2-2\---2-2\---2-2\---1-1-0--1-1-0--1-1-0--1-1-0---|

Guitar1
Db]-----------------------------------------------------|
Ab]-----------------------------------------------------|
E ]-----------------------------------------------------|
B ]--2-2\---2-2\---2-2\---1-1-1--1-1-1--1-1-1--1-1-1----|
Gb]--2-2\---2-2\---2-2\---1-1-1--1-1-1--1-1-1--1-1-1----|
B ]--2-2\---2-2\---2-2\---1-1-1--1-1-1--1-1-1--1-1-1----|

Guitar1  Chorus 1:10-1:38
Db]----------------------------------------------------|
Ab]----------------------------------------------------|
E ]----------------------------------------------------|
B ]-10-10-10---7---2-----------------------------------|
Gb]-10-10-10---7---2-X4--------------------------------|
B ]-10-10-10---7---2-----------------------------------|

            1:38-2:20

           (Play intro)

            2:20-2:48
	   (play pre-chorus)

            2:48-3:15
	   (play chorus)

Guitar 1    3:15-3:25
Db]-----------------------------------------------------|
Ab]-----------------------------------------------------|
E ]-----------------------------------------------------|
B ]-2--2-2-2-2-2-0--------------------------------------|
Gb]-2--2-2-2-2-2-0-X3-----------------------------------|
B ]-2--2-2-2-2-2-0--------------------------------------|


Guitar 2   3:25-3-52
(This part sounds exact to me)
Db]-----0-----0-----0------0----|
Ab]---0-----0-----0------0------|
E ]-----------------------------|
B ]--------------------------X4-|
Gb]-2-----0-----3-----0---------|
B ]-----------------------------|

Guitar 1  3:52-4:22

Db]------------------------|
Ab]------------------------|
E ]------------------------|
B ]-9---2---10---X4--------|
Gb]-9---2---10-------------|
B ]-9---2---10-------------|

           4:22-4:51
	(Chorus)


Guitar 1 Outro 4:51-end
Db]------------------------|
Ab]------------------------|
E ]------------------------|
B ]-2-4--5--12--10---7--2--| (repeat 10 7 2 until end)
Gb]-2-4--5--12--10---7--2--|
B ]-2-4--5--12--10---7--2--|
            

comments powered by Disqus
↑ Back to top | Demon Hunter Tabs for I Play Dead. Lyrics for acoustic guitar and electric guitar. Tablatures and chords are parodies/interpretations of the original songs. You may use it for private study, scholarship, research or language learning purposes only