» » »

Demon Hunter, Infected Tabs (ver.2)

Artists:  A B C D E F G H I J K L M N O P Q R S T U V W X Y Z # 

Infected Tabs (ver.2)

Demon Hunter Tabs
 Rating:
4.2/5 (5 votes)
Infected lessons Tabs too difficult? Try these video lessons and learn fast
1
                  The other tab wasn't quite right so heres the right way to playit.

  Intro(4x)       Verse Riff 1(2x)
d|---------------|-----------------|
A|---------------|-----------------|
F|-3~3~3~3~------|-3---------------|
C|-3~3~3~3~------|-x---------------|
G|-1~1~1~1~------|-1---------------|
C|---------4-3-0-|---0-1-0-2-3-2-0-|
  Verse Riff 1(8x)
  Verse Riff 2(2x)
d|----------------------------------|
A|----------------------------------|
F|----------------------------------|
C|-6666666666666-1-x-0-000000000000-|
G|-6666666666666-1-x-0-000000000000-|
C|-6666666666666-1-x-0-000000000000-|
  Chorus
  Guitar 1(This part 2x/Whole thing 2x)
d|-------------|-------------------------------|
A|-------------|-------------------------------|
F|-------------|-------------------------------|
C|-----8~~~~~~~|-44444444444444444444444444444-|
G|---6~~~6~~~6~|-44444444444444444444444444444-|
C|-6~~~~~~~6~~~|-44444444444444444444444444444-|
 |Guitar 2(w/Wah)
d|-------------|----------------------------------|
A|-------------|----------------------------------|
F|-------------|----------------------------------|
C|-------------|----------------------------------|
G|-------------|-4b4b4b4b4b4b4b4b4b4b4b4b4b4b4b4b-|
C|-------------|----------------------------------|
  Verse Riff 1
  Verse Riff 2
  Chorus
  Bridge(Bunch'o x)
d|-----------|
A|-----------|
F|----2~~~~~~|
C|-1~~--2~~~~|
G|-1~~----3b~|
C|-1~~-------|
  Bridge Riff 2(few x)
d|---------------|
A|---------------|
F|--------2~~~~~~|
C|-1~1-1~~--2~~~~|
G|-1~1-1~~----3b~|
C|-1~1-1~~-------|
  End with verse riff 1

        Ezy right?
                 -J    
            
Submit corrections

comments powered by Disqus
↑ Back to top | Demon Hunter Tabs for Infected. Lyrics for acoustic guitar and electric guitar. 1 Tablatures and chords are parodies/interpretations of the original songs. You may use it for private study, scholarship, research or language learning purposes only