>
 >
I Am You

I Am You Guitar Tabs

Demon Hunter - I Am You chords, tabs, tablatures, lyrics

Guitar lessons | Add/correct | Request | Top 50 tabs Artists:  A B C D E F G H I J K L M N O P Q R S T U V W X Y Z 0-9

I Am You Guitar Tabs – Demon Hunter

CD, Sheet music, Poster

Do you like I Am You? Share with your friends now
Tabs
Band: Demon Hunter
Tuning: Drop B (B-F#-B-E-G#-C#)

!NOTICE!
Now that I got this one out of the way, Fading Away is coming up next guys!

Compared to other songs on this album, it's pretty striaght forward and easy to learn. 

=========================================||
------------==|I AM YOU|==---------------||
=========================================||
Track: I Am You
Track Number: 07
Duration: 4:14
Guitar Tunning: Drop B (B F# B E G# C#)
Bass Tunning: Drop B (B F# B E)
Effects Used: 
Techniques Used: Bends, Vibrato
Instruments/Musicians: Ethan Luck; Lead Guitar,
Don Clark; Rhythm Guitar, Jon Dunn; Bass
Additional Song Notes: 

-There is a effect that is used during the bridge, as most DH songs use instrument
effects like Disturbed. Live it's just played normally but on the song it's more of a
funky sound. 

-Ethan = Right Channel
-Don = Left Channel

-I'll add in the bass parts later

-Song is based in B Phyrgian

Tab Legend:
/ = slide up
\ = slide down
. = Palm Mute
* = Pinched Harmonic
~ = Vibrato
b = Slight bend
' = Pizzicato

============--\\\\\\\\\\\\\\\\\\\\\\\\\\\\\\\\\\\\\\\\\\\\\\\\\\\\\\\\\\\\\
INTRO==---|================================================================
============--/////////////////////////////////////////////////////////////


0:00
Ethan - Lead
The br br means bend and release 2x
Just listen to the song and you'll know what I mean
G#||----------------------------------------------------------||
C#||----------------------------------------------------------||
E ||-------------7br-br--------5br-br-------7br-br-------5br--||
B ||-------------x-------------x------------x------------x----||
F#||-1-4-6-0--0--5br-br--0--0--3br-br-0--0--5br-br-0--0--3br--||
B ||-1-4-6-0--0----------0--0---------0--0---------0--0-------|| 

Don - Rhythm
G#||----------------------------------------------------------||
C#||----------------------------------------------------------||
E ||---------------------------5-------------------------5----||
B ||-------------0-------------3------------0------------3----||
F#||-1-4-6-0--0--0-------0--0--3------0--0--0------0--0--3----||
B ||-1-4-6-0--0--0-------0--0--3------0--0--0------0--0--3----||

 
0:10
Both Guitars
G#||----------------------------------------------------------||
C#||----------------------------------------------------------||
E ||-------------7br-br--------5br-br-------7br-br-------5br--||
B ||-------------x-------------x------------x------------x----||
F#||-1-4-6-0--0--5br-br--0--0--3br-br-0--0--5br-br-0--0--3br--||
B ||-1-4-6-0--0----------0--0---------0--0---------0--0-------|| 


0:19
Both Guitars
G#||--------||
C#||--------||
E ||--------||
B ||--------||
F#||-1-4-6'-||
B ||-1-4-6'-|| 


============--\\\\\\\\\\\\\\\\\\\\\\\\\\\\\\\\\\\\\\\\\\\\\\\\\\\\\\\\\\\\\
VERSE==---|===================================================
============--/////////////////////////////////////////////////////////////

-Here the song kicks in to a Double Time Feel
This can also get confusing just because it's so back and forth.


0:21
Both Guitars
This riff is played FAST so make sure you get the picking down for it
    "A black heart in an empty shell..."
G#||-----------------||
C#||-----------------||
E ||-----------------||
B ||-----------------||
F#||-0-4-3-0-1-0-4-3-||
B ||-0-4-3-0-1-0-4-3-|| x3


0:25
Ethan - Lead
    "-Waste... I AM YOU!"
G#||-----------------||
C#||-----------------||
E ||---------6-6--6'-||
B ||-----------------||
F#||-0-4-3-0-4-4--4'-||
B ||-0-4-3-0---------||


Don - Rhythm
G#||-----------------||
C#||-----------------||
E ||-----------------||
B ||-----------------||
F#||-0-4-3-0-1-1--1'-||
B ||-0-4-3-0-1-1--1'-||

0:26
Both Guitars
This riff is played FAST so make sure you get the picking down for it
    "A blank page in an unknown book..."
G#||-----------------||
C#||-----------------||
E ||-----------------||
B ||-----------------||
F#||-0-4-3-0-1-0-4-3-||
B ||-0-4-3-0-1-0-4-3-|| x3


0:30
Ethan - Lead
    "-Face... I AM THE-"
G#||-----------------||
C#||-----------------||
E ||---------6-6--6'-||
B ||---------x-x--x--||
F#||-0-4-3-0-4-4--4'-||
B ||-0-4-3-0---------||


Don - Rhythm
G#||-----------------||
C#||-----------------||
E ||-----------------||
B ||-----------------||
F#||-0-4-3-0-1-1--1'-||
B ||-0-4-3-0-1-1--1'-||


0:31
Both Guitars
Fast gallop picking here. This gets tricky.
    "Endless scar, The Broken Hope..."
G#||-------------------||
C#||-------------------||
E ||-------------------||
B ||-------------------||
F#||-------------------||
B ||-0000--0000--0000--|| x3
     ....  ....  ....


0:35
Ethan - Lead
    "-Faith... I AM YOU!"
G#||---------------------||
C#||---------------------||
E ||-------------6-6--6'-||
B ||-------------x-x--x--||
F#||-------------4-4--4'-||
B ||-0000--0000----------|| 
     ....  ....  


Don - Rhythm
G#||---------------------||
C#||---------------------||
E ||---------------------||
B ||---------------------||
F#||-------------1-1--1--||
B ||-0000--0000--1-1--1--|| 
     ....  ....  


0:36
Both Guitars
    "The dark trail of endless graves..."
G#||-----------------||
C#||-----------------||
E ||-----------------||
B ||-----------------||
F#||-0-4-3-0-1-0-4-3-||
B ||-0-4-3-0-1-0-4-3-|| x4


============--\\\\\\\\\\\\\\\\\\\\\\\\\\\\\\\\\\\\\\\\\\\\\\\\\\\\\\\\\\\\\
PRECHORUS==---|============================================================
============--/////////////////////////////////////////////////////////////


0:41
Ethan - Lead 
    "I...            Am...                   Waiting .."
G#||-----------------------------------------------||
C#||-----------------------------------------------||
E ||-6-6-6-6-6-6-6-6-12-12-12-12-12-12-12-12-15-\--||
B ||-x-x-x-x-x-x-x-x-x--x--x--x--x--x--x--x--x-----||
F#||-4-4-4-4-4-4-4-4-10-10-10-10-10-10-10-10-13-\--||
B ||-----------------------------------------------|| 


Don - Rhythm
G#||-----------------------------------------------||
C#||-----------------------------------------------||
E ||-6-6-6-6-6-6-6-6-12-12-12-12-12-12-12-12-7-\---||
B ||-x-x-x-x-x-x-x-x-x--x--x--x--x--x--x--x--x-----||
F#||-4-4-4-4-4-4-4-4-10-10-10-10-10-10-10-10-5-\---||
B ||-----------------------------------------------|| 


0:44
Both Guitars
    "For that blade to fall and cut me free of this..."   
G#||------------------------------------------||
C#||------------------------------------------||
E ||------------------------------------------||
B ||------------------------------------------||
F#||------------------------------------------||
B ||-0-0-0-0---0-0-0-0'--0'--0-0-0-0--0-0-0-0-|| 
     . . . .   . . . .   .   . . . .  . . . .

0:48
Ethan - Lead
    "Hollow life that leads to all..."
G#||-------------------------------------------||
C#||-------------------------------------------||
E ||-6-\---------------------------------------||
B ||-x-----------------------------------------||
F#||-4-\-------------------------------1-1-1-1-||
B ||-----0-0-0-0--0-0-0-0--0--0-0-0-0--1-1-1-1-|| 
                                       . . . .

Don - Rhythm
G#||--------------------------------------------||
C#||--------------------------------------------||
E ||-15-\---------------------------------------||
B ||-x------------------------------------------||
F#||-13-\-------------------------------1-1-1-1-||
B ||------0-0-0-0--0-0-0-0--0--0-0-0-0--1-1-1-1-|| 
                                        . . . .


============--\\\\\\\\\\\\\\\\\\\\\\\\\\\\\\\\\\\\\\\\\\\\\\\\\\\\\\\\\\\\\
CHORUS==---|===============================================================
============--/////////////////////////////////////////////////////////////


0:53
Both Guitars
Let the chord ring out
    "Time to burn this design, to free our-"
G#||---------------------------------------||
C#||---------------------------------------||
E ||---------------------------------------||
B ||-0-------------------------------------||
F#||-0-------------------------------------||
B ||-0-------------------------------------|| 


0:57
Both Guitars
    "selves...                   ...We will burn this together..."
G#||------------------------------------------------------------||
C#||------------------------------------------------------------||
E ||------------------------------------------------------------||
B ||-10-10-10-10'--10-10-10-10\----10-10-10-10'--10-10-10-------||
F#||-10-10-10-10'--10-10-10-10\----10-10-10-10'--10-10-10-1-4-6-||
B ||-10-10-10-10'--10-10-10-10\----10-10-10-10'--10-10-10-1-4-6-|| 


Additional Guitar
This is an overdub. It's panned to the middle.
G#||------------------------------------------------------------||
C#||------------------------------------------------------------||
E ||-12-----------10-----------9---7-------------9--------10----||
B ||-x-------------x-----------x---x-------------x---------x----||
F#||-10------------8-----------7---5-------------7---------8----||
B ||------------------------------------------------------------|| 


1:02
Both Guitars
    "Time to fuse this design, to make us..."
G#||--------------------------------||
C#||--------------------------------||
E ||----7brbr---7-7-----7brbr---7-7-||
B ||----x-------x-x-----x-------x-x-||
F#||-0--5brbr---5-5--0--5brbr---5-5-||
B ||-0--------0------0--------0-----|| 


1:07
Both Guitars
    "one...                   ...We will burn this together..."
G#||------------------------------------------------------------||
C#||------------------------------------------------------------||
E ||------------------------------------------------------------||
B ||-10-10-10-10'--10-10-10-10\----10-10-10-10'--10-10-10-------||
F#||-10-10-10-10'--10-10-10-10\----10-10-10-10'--10-10-10-1-4-6-||
B ||-10-10-10-10'--10-10-10-10\----10-10-10-10'--10-10-10-1-4-6-|| 


Additional Guitar
This is an overdub. It's panned to the middle.
G#||------------------------------------------------------------||
C#||------------------------------------------------------------||
E ||-12-----------10-----------9---7-------------9--------10----||
B ||-x-------------x-----------x---x-------------x---------x----||
F#||-10------------8-----------7---5-------------7---------8----||
B ||------------------------------------------------------------|| 


1:12
Both Guitars
G#||-----------------------------||
C#||-----------------------------||
E ||--------7br-br--------5br-br-||
B ||--------x-------------x------||
F#||--0--0--5br-br--0--0--3br-br-||
B ||--0--0----------0--0---------|| 


============--\\\\\\\\\\\\\\\\\\\\\\\\\\\\\\\\\\\\\\\\\\\\\\\\\\\\\\\\\\\\\
VERSE 2==---|==============================================================
============--/////////////////////////////////////////////////////////////


1:17
Play the VERSE section
However, there is a small change:

Both Guitars
Instead of playing the octaves and power chords just rest 
for the rest of the measure. The only other change is there
is a stutter effect done via ProTools for the beginning
of the 2nd pre chorus riff. 

    "-Storm... I AM YOU!"
G#||---------------------||
C#||---------------------||
E ||---------------------||
B ||---------------------||
F#||---------------------||
B ||-0000--0000----------|| 
     ....  ....  

1:36
Play the PRECHORUS section


============--\\\\\\\\\\\\\\\\\\\\\\\\\\\\\\\\\\\\\\\\\\\\\\\\\\\\\\\\\\\\\
CHORUS 2==---|=============================================================
============--/////////////////////////////////////////////////////////////


1:48
Play the CHORUS section

The end is different, Instead of playing:

1:12
Both Guitars
G#||-----------------------------||
C#||-----------------------------||
E ||--------7br-br--------5br-br-||
B ||--------x-------------x------||
F#||--0--0--5br-br--0--0--3br-br-||
B ||--0--0----------0--0---------||


You'll play:


2:07 
Both Guitars
G#||---------------------------------||
C#||---------------------------------||
E ||---------------------------------||
B ||---------------------------------||
F#||--0--0--0--------0--0--0--10-8-7-||
B ||--0--0--0--------0--0--0--10-8-7-||



============--\\\\\\\\\\\\\\\\\\\\\\\\\\\\\\\\\\\\\\\\\\\\\\\\\\\\\\\\\\\\\
BRIDGE==---|===============================================================
============--/////////////////////////////////////////////////////////////


2:12
Additional Guitar
This has a synth or some sort of effect on it.
Ethan plays this part live so, he probably recorded it too.
(Let every note ring out)
    "I will rise..."
G#||----------------------------||
C#||----------------------------||
E ||----------------------------||
B ||----------------------------||
F#||-----12---------12-13-15-13-||
B ||-0----------0---------------|| x2


2:21
Additional Guitar
    "We will rise..."
G#||----------------------------||
C#||----------------------------||
E ||----------------------------||
B ||----------------------------||
F#||-----12---------12-13-15-13-||
B ||-0----------0---------------||


Ethan - Lead
G#||----------------------------||
C#||----------------------------||
E ||----------------10-10-10-10-||
B ||----------------x--x--x--x--||
F#||----------------8--8--8--8--||
B ||----------------------------||


Don - Rhythm
G#||----------------------------||
C#||----------------------------||
E ||----------------7--7--7--7--||
B ||----------------x--x--x--x--||
F#||----------------5--5--5--5--||
B ||----------------------------||


2:26
Both Guitars
    "Down!..."
G#||--------------------------------------||
C#||--------------------------------------||
E ||-----7-\------------------------------||
B ||-----x--------------------------------||
F#||-0---5-\--------------------------1-3-||
B ||-0-------0--0-0--0-0'--0'-5h8p5h8-1-3-|| x4
     .       .  . .  . .   .

Additional Guitar
You can hear this in the background. 
It's still going but only faintly.
G#||----------------------------||
C#||----------------------------||
E ||----------------------------||
B ||----------------------------||
F#||-----12---------12-13-15-13-||
B ||-0----------0---------------|| x4


2:45
Ethan - Lead
    "Down!..."
G#||--------------------------------------||
C#||--------------------------------------||
E ||--------7-\---------------------------||
B ||--------x-----------------------------||
F#||-0------5-\-----------------------1-3-||
B ||-0----------0-0--0-0'--0'-5h8p5h8-1-3-|| x4
     .          . .  . .   .

Don - Rhythm
G#||--------------------------------------||
C#||--------------------------------------||
E ||-----7-\------------------------------||
B ||-----x--------------------------------||
F#||-0---5-\--------------------------1-3-||
B ||-0-------0--0-0--0-0'--0'-5h8p5h8-1-3-|| x4
     .       .  . .  . .   .

Additional Guitar
In the background you can hear it. 
Sounds like a snyth or something
Hold it out for 2 times of the above riffs
G#||-16--||
C#||-----||
E ||-----||
B ||-----||
F#||-----||
B ||-----|| x2


============--\\\\\\\\\\\\\\\\\\\\\\\\\\\\\\\\\\\\\\\\\\\\\\\\\\\\\\\\\\\\\
FINAL CHORUS==---|=========================================================
============--/////////////////////////////////////////////////////////////


3:05
Both Guitars
Let the chord ring out
    "Time to burn this design, to free our-"
G#||---------------------------------------||
C#||---------------------------------------||
E ||---------------------------------------||
B ||-0-------------------------------------||
F#||-0-------------------------------------||
B ||-0-------------------------------------|| 


3:09
Both Guitars
    "selves...                   ...We will burn this together..."
G#||------------------------------------------------------------||
C#||------------------------------------------------------------||
E ||------------------------------------------------------------||
B ||-10-10-10-10'--10-10-10-10\----10-10-10-10'--10-10-10-------||
F#||-10-10-10-10'--10-10-10-10\----10-10-10-10'--10-10-10-1-4-6-||
B ||-10-10-10-10'--10-10-10-10\----10-10-10-10'--10-10-10-1-4-6-|| 


Additional Guitar
This is an overdub. It's panned to the middle.
G#||------------------------------------------------------------||
C#||------------------------------------------------------------||
E ||-12-----------10-----------9---7-------------9--------10----||
B ||-x-------------x-----------x---x-------------x---------x----||
F#||-10------------8-----------7---5-------------7---------8----||
B ||------------------------------------------------------------|| 


3:14
Both Guitars
    "Time to fuse this design, to make us..."
G#||--------------------------------||
C#||--------------------------------||
E ||----7brbr---7-7-----7brbr---7-7-||
B ||----x-------x-x-----x-------x-x-||
F#||-0--5brbr---5-5--0--5brbr---5-5-||
B ||-0--------0------0--------0-----|| 


3:19
Both Guitars
    "one...                   ...We will burn this together..."
G#||------------------------------------------------------------||
C#||------------------------------------------------------------||
E ||------------------------------------------------------------||
B ||-10-10-10-10'--10-10-10-10\----10-10-10-10'--10-10-10-------||
F#||-10-10-10-10'--10-10-10-10\----10-10-10-10'--10-10-10-1-4-6-||
B ||-10-10-10-10'--10-10-10-10\----10-10-10-10'--10-10-10-1-4-6-|| 


Additional Guitar
This is an overdub. It's panned to the middle.
G#||------------------------------------------------------------||
C#||------------------------------------------------------------||
E ||-12-----------10-----------9---7-------------9--------10----||
B ||-x-------------x-----------x---x-------------x---------x----||
F#||-10------------8-----------7---5-------------7---------8----||
B ||------------------------------------------------------------|| 


3:24
Both Guitars
    "Time burn this design, to free our..."
G#||--------------------------------||
C#||--------------------------------||
E ||----7brbr---7-7-----7brbr---7-7-||
B ||----x-------x-x-----x-------x-x-||
F#||-0--5brbr---5-5--0--5brbr---5-5-||
B ||-0--------0------0--------0-----|| 


3:29
Both Guitars
    "selves...                   ...We will burn this together..."
G#||------------------------------------------------------------||
C#||------------------------------------------------------------||
E ||------------------------------------------------------------||
B ||-10-10-10-10'--10-10-10-10\----10-10-10-10'--10-10-10-------||
F#||-10-10-10-10'--10-10-10-10\----10-10-10-10'--10-10-10-1-4-6-||
B ||-10-10-10-10'--10-10-10-10\----10-10-10-10'--10-10-10-1-4-6-|| 


Additional Guitar
This is an overdub. It's panned to the middle.
G#||------------------------------------------------------------||
C#||------------------------------------------------------------||
E ||-12-----------10-----------9---7-------------9--------10----||
B ||-x-------------x-----------x---x-------------x---------x----||
F#||-10------------8-----------7---5-------------7---------8----||
B ||------------------------------------------------------------|| 


3:34
Both Guitars
    "Time to fuse this design, to make us..."
G#||--------------------------------||
C#||--------------------------------||
E ||----7brbr---7-7-----7brbr---7-7-||
B ||----x-------x-x-----x-------x-x-||
F#||-0--5brbr---5-5--0--5brbr---5-5-||
B ||-0--------0------0--------0-----|| 


3:38
Both Guitars
    "one...                   ...We will burn this together..."
G#||------------------------------------------------------------||
C#||------------------------------------------------------------||
E ||------------------------------------------------------------||
B ||-10-10-10-10'--10-10-10-10\----10-10-10-10'--10-10-10-------||
F#||-10-10-10-10'--10-10-10-10\----10-10-10-10'--10-10-10-1-4-6-||
B ||-10-10-10-10'--10-10-10-10\----10-10-10-10'--10-10-10-1-4-6-|| 


Additional Guitar
This is an overdub. It's panned to the middle.
G#||------------------------------------------------------------||
C#||------------------------------------------------------------||
E ||-12-----------10-----------9---7-------------9--------10----||
B ||-x-------------x-----------x---x-------------x---------x----||
F#||-10------------8-----------7---5-------------7---------8----||
B ||------------------------------------------------------------|| 


3:43
Ethan - Lead
G#||---------------------------------------------||
C#||---------------------------------------------||
E ||-7-\-----------------------------------------||
B ||-x-------------------------------------------||
F#||-5-\-----------------------------------------||
B ||-----0-0-0-0--0-0-0-0--0-0--0-0-0-0--0-0-0-0-|| 
         . . . .  . . . .  . .  . . . .  . . . .                             

Don - Rhythm
G#||---------------------------------------------||
C#||---------------------------------------------||
E ||-15-\----------------------------------------||
B ||-x-------------------------------------------||
F#||-13-\----------------------------------------||
B ||-----0-0-0-0--0-0-0-0--0-0--0-0-0-0--0-0-0-0-|| 
         . . . .  . . . .  . .  . . . .  . . . . 


3:48
Ethan - Lead
G#||------------------------------------------------||
C#||------------------------------------------------||
E ||-6-\--------------------------------------------||
B ||-x----------------------------------------------||
F#||-4-\------------------------------------1-1-1-1-||
B ||-----0-0-0-0--0-0-0-0--0-0--0-0-0-0--0--1-1-1-1-|| 
                                            . . . .                        

Don - Rhythm
G#||------------------------------------------------||
C#||------------------------------------------------||
E ||-15-\-------------------------------------------||
B ||-x----------------------------------------------||
F#||-13-\-----------------------------------1-1-1-1-||
B ||-----0-0-0-0--0-0-0-0--0-0--0-0-0-0--0--1-1-1-1-|| 
                                            . . . .  

============--\\\\\\\\\\\\\\\\\\\\\\\\\\\\\\\\\\\\\\\\\\\\\\\\\\\\\\\\\\\\\
OUTRO==---|================================================================
============--/////////////////////////////////////////////////////////////


3:53
Additional Guitar
Outro with the same synth guitar sound
Starts to fade out after the 2nd time
G#||----------------------------||
C#||----------------------------||
E ||----------------------------||
B ||----------------------------||
F#||-----12---------12-13-15-13-||
B ||-0----------0---------------|| x5



Lyrics:

A black heart in an empty shell where the desperation laid waste - I am you
A blank page in an unknown book and the opposition you face
I am the endless scar, the broken hope, the gaping hole in your faith - I am you
The dark trail of endless graves where all the lifeless lay

I am waiting for that blade to fall and cut me free of this
Hollow life that leads to all the ends that don't exist

[Chorus:]
Time to burn this design, to free ourselves
We will burn this together
Time to fuse this design, to make us one
We will burn this together

A new voice for the broken souls in a world awaiting its death - I am you
An everlasting well of life for the hopeless and the wrecked
I am the dying self, the narrow path, the calm that conquered the storm - I am you
The cross hairs on the head of shame, the negation to conform

I am waiting for that blade to fall and cut me free of this
Hollow life that leads to all the ends that don't exist

[Chorus]

I will rise
I will break this
You will rise
You will break this
We will rise
We will take them down
Rise and break them down
Down, down, down
Break them down

[Chorus]





Comments


Popular Demon Hunter tabs & chords
Deteriorate Bass Tabs
I Am A Stone 2 Chords
My Heartstrings Come Undone Chords
Carry Me Down 1 Tabs
Fiction Kingdom Tabs
Flame That Guides Us Home Tabs
No Reason To Exist 2 Tabs
Not Ready To Die Intro Tabs
Soldiers Song Intro Tabs
Tie This Around Your Neck Tabs


Song lyrics



↑ Back to top | Tablatures and chords are parodies/interpretations of the original songs. You may use it for private study, scholarship, research or language learning purposes only
© 2014 AZChords.com Contact us | Privacy policy | DMCA | Add/correct tabs | Request tabs | Top 50 tabs