» » »

Demon Hunter, Fire To My Soul Tabs (ver.1)

Artists:  A B C D E F G H I J K L M N O P Q R S T U V W X Y Z # 

Fire To My Soul Tabs (ver.1)

Demon Hunter Tabs
 Rating:
3.7/5 (6 votes)
Fire To My Soul lessons Tabs too difficult? Try these video lessons and learn fast
1
                Okay, everyone was tellin me that my FTMS tab sucked (and it did) so I looked around and 
this one. Props to Adam K for tabbin this.


Demon Hunter-Fire To My Soul
Drop B Tuning B-F#-B-E-G#-C#

slide down=S<
palm mute=..., etc.
slide up=S>
p=pull off
b=bend

Intro
Kinda has backround sound
Gtr. 2
C#[------------------------]
G#[------------------------]
E [------------------------]
B [-S<-00/1/0-S<-0/1/0/1/0-]
F#[-S<-00/1/0-S<-0/1/0/1/0-]x3
B [-S<-00/1/0-S<-0/1/0/1/0-]
       ..
C#[-----------]
G#[-----------]
E [-----------]
B [-S<-00/1/0-]
F#[-S<-00/1/0-]
B [-S<-00/1/0-]
       ..
Then Gtr. 1
C#[-------]
G#[-------]
E [-------]
B [-1-8-1-]
F#[-1-8-1-]
B [-1-8-1-]

Then both guitars
C#[----------------------------------------------]
G#[-10---------------------9---------------------]
E [------------7---------------------7-----------]
B [---0-1/0/0----0/1/0/1/0---0-1/0/0---0/1/0/1/0-]
F#[---0-1/0/0----0/1/0/1/0---0-1/0/0---0/1/0/1/0-]x3
B [---0-1/0/0----0/1/0/1/0---0-1/0/0---0/1/0/1/0-]

C#[---------------------------------------]
G#[-10---------------------9--------------]
E [------------7--------------------------]
B [---0-1/0/0----0/1/0/1/0---0-1/0/0--1S>-]
F#[---0-1/0/0----0/1/0/1/0---0-1/0/0--1S>-]
B [---0-1/0/0----0/1/0/1/0---0-1/0/0--1S>-]

Interlude
Gtr. 2
He uses some sort of pedal
C#[------------------------------]
G#[------------------------------]
E [------------------------------]
B [-12p0/0-12p0/0/12p0/0-12p0/13-]
F#[-12p0/0-12p0/0/12p0/0-12p0/13-]
B [-12p0/0-12p0/0/12p0/0-12p0/13-]
    ............................
C#[------------------------------]
G#[------------------------------]
E [------------------------------]
B [-12p0/0-12p0/0/12p0/0-12p0/13-]
F#[-12p0/0-12p0/0/12p0/0-12p0/13-]
B [-12p0/0-12p0/0/12p0/0-12p0/13-]
    .................
C#[------------------------------]
G#[------------------------------]
E [------------------------------]
B [-12p0/0-12p0/0/12p0/0-12p0/13-]
F#[-12p0/0-12p0/0/12p0/0-12p0/13-]x2
B [-12p0/0-12p0/0/12p0/0-12p0/13-]

Verse 1

Gtr. 2
C#[------------------------------]
G#[------------------------------]
E [------------------------------]
B [-12p0/0-12p0/0/12p0/0-12p0/13-]
F#[-12p0/0-12p0/0/12p0/0-12p0/13-]
B [-12p0/0-12p0/0/12p0/0-12p0/13-]

Gtr. 1
C#[-------------------------------]
G#[-------------------------------]
E [-14/14/14/14/14/14/14/14/14/14-]
B [--x--x--x--x--x--x--x--x--x--x-]
F#[-12/12/12/12/12/12/12/12/12/12-]
B [-------------------------------]

Then

Gtr. 2
C#[------------------------------]
G#[------------------------------]
E [------------------------------]
B [-12p0/0-12p0/0/12p0/0-12p0/13-]
F#[-12p0/0-12p0/0/12p0/0-12p0/13-]
B [-12p0/0-12p0/0/12p0/0-12p0/13-]

Gtr. 1
C#[-------------------------------]
G#[-------------------------------]
E [-13/13/13/13/13/13/13/13/13/13-]
B [--x--x--x--x--x--x--x--x--x--x-]
F#[-11/11/11/11/11/11/11/11/11/11-]
B [-------------------------------]

Then

Gtr. 2
C#[------------------------------]
G#[------------------------------]
E [------------------------------]
B [-12p0/0-12p0/0/12p0/0-12p0/13-]
F#[-12p0/0-12p0/0/12p0/0-12p0/13-]
B [-12p0/0-12p0/0/12p0/0-12p0/13-]

Gtr. 1
C#[-------------------------------]
G#[-------------------------------]
E [-12/12/12/12/12/12/12/12/12/12-]
B [--x--x--x--x--x--x--x--x--x--x-]
F#[-10/10/10/10/10/10/10/10/10/10-]
B [-------------------------------]

Then

Gtr. 2
C#[------------------------------]
G#[------------------------------]
E [------------------------------]
B [-12p0/0-12p0/0/12p0/0-12p0/13-]
F#[-12p0/0-12p0/0/12p0/0-12p0/13-]
B [-12p0/0-12p0/0/12p0/0-12p0/13-]

Gtr. 1
C#[-------------------------------]
G#[-------------------------------]
E [-11/11/11/11/11/11/11/11/11/11-]
B [--x--x--x--x--x--x--x--x--x--x-]
F#[--9--9--9--9--9--9--9--9--9--9-]
B [-------------------------------]

Repeat verse.

Pre-Chorus

C3[----------------------------------------]
G#[----------------------------------------]
E [----------------------------------------]
B [-6/5/1-8/7/10-0000-1/0-0/0-0000-1/0-0/0-]
F#[-6/5/1-8/7/10-0000-1/0-0/0-0000-1/0-0/0-]x3
B [-6/5/1-8/7/10-0000-1/0-0/0-0000-1/0-0/0-]
                 ....         ....
C#[-------------]
G#[-------------]
E [-------------]
B [6/5/1-8/7/10-]
F#[6/5/1-8/7/10-]
B [6/5/1-8/7/10-]

C#[-----------------------------------------------------------------]
G#[-----------------------------------------------------------------]
E [-----------------------------------------------------------------]
B [-0/0/1/0-0/0/1/0-0/0/1/0-0/0/1/0-0/0/1/0-0/0/1/0-0/0/1/0-0/0/1/0-]
F#[-0/0/1/0-0/0/1/0-0/0/1/0-0/0/1/0-0/0/1/0-0/0/1/0-0/0/1/0-0/0/1/0-]
B [-0/0/1/0-0/0/1/0-0/0/1/0-0/0/1/0-0/0/1/0-0/0/1/0-0/0/1/0-0/0/1/0-]
    ...................................

Chorus

Both Guitars
C#[----------------------------------------------]
G#[------------------------10--------------------]
E [----------------------------------7-----------]
B [---0-1/0/0----0/1/0/1/0---0-1/0/0---0/1/0/1/0-]
F#[---0-1/0/0----0/1/0/1/0---0-1/0/0---0/1/0/1/0-]
B [---0-1/0/0----0/1/0/1/0---0-1/0/0---0/1/0/1/0-]

C#[----------------------------------------------]
G#[--9---------------------10--------------------]
E [------------7---------------------7-----------]
B [---0-1/0/0----0/1/0/1/0---0-1/0/0---0/1/0/1/0-]
F#[---0-1/0/0----0/1/0/1/0---0-1/0/0---0/1/0/1/0-]x3
B [---0-1/0/0----0/1/0/1/0---0-1/0/0---0/1/0/1/0-]

Interlude

Gtr. 1
C#[------]
G#[------]
E [-10b--]
B [--xb--]
F#[--8b--]
B [------]

Gtr. 2
C#[------]
G#[------]
E [-12b--]
B [--xb--]
F#[-10b--]

Verse 2

C#[------------------------------]
G#[------------------------------]
E [------------------------------]
B [-12p0/0-12p0/0/12p0/0-12p0/13-]
F#[-12p0/0-12p0/0/12p0/0-12p0/13-]
B [-12p0/0-12p0/0/12p0/0-12p0/13-]
    ............................
C#[------------------------------]
G#[------------------------------]
E [------------------------------]
B [-12p0/0-12p0/0/12p0/0-12p0/13-]
F#[-12p0/0-12p0/0/12p0/0-12p0/13-]
B [-12p0/0-12p0/0/12p0/0-12p0/13-]
    .................
C#[------------------------------]
G#[------------------------------]
E [------------------------------]
B [-12p0/0-12p0/0/12p0/0-12p0/13-]
F#[-12p0/0-12p0/0/12p0/0-12p0/13-]x2
B [-12p0/0-12p0/0/12p0/0-12p0/13-]

Pre-Chorus

Chorus 2
C#[----------------------------------------------]
G#[------------------------10--------------------]
E [----------------------------------7-----------]
B [---0-1/0/0----0/1/0/1/0---0-1/0/0---0/1/0/1/0-]
F#[---0-1/0/0----0/1/0/1/0---0-1/0/0---0/1/0/1/0-]
B [---0-1/0/0----0/1/0/1/0---0-1/0/0---0/1/0/1/0-]

C#[-----------------------------------------]
G#[--9---------------------10---------------]
E [------------7----------------------------]
B [---0-1/0/0----0/1/0/1/0---0-1/0/0--1-8-1-]
F#[---0-1/0/0----0/1/0/1/0---0-1/0/0--1-8-1-]
B [---0-1/0/0----0/1/0/1/0---0-1/0/0--1-8-1-]

C#[----------------------------------------------]
G#[--9---------------------10--------------------]
E [------------7---------------------7-----------]
B [---0-1/0/0----0/1/0/1/0---0-1/0/0---0/1/0/1/0-]
F#[---0-1/0/0----0/1/0/1/0---0-1/0/0---0/1/0/1/0-]
B [---0-1/0/0----0/1/0/1/0---0-1/0/0---0/1/0/1/0-]

C#[-------------------------------------------]
G#[--9---------------------10-----------------]
E [------------7------------------------------]
B [---0-1/0/0----0/1/0/1/0---0-1/0/0--1-8-1-0-]
F#[---0-1/0/0----0/1/0/1/0---0-1/0/0--1-8-1-0-]
B [---0-1/0/0----0/1/0/1/0---0-1/0/0--1-8-1-0-]

Bridge

Gtr. 1
C#[------------------]
G#[------------------]
E [------------------]
B [-7----8----8----7-]
F#[-5----5----4----4-]
B [------------------]x2

Then

Gtr. 2
C#[------------------]
G#[------------------]
E [------------------]
B [-7----8----8----7-]
F#[-5----5----4----4-]x2
B [------------------]
   ..................
Gtr. 1
B [-7----8----8----7-]
F#[-5----5----4----4-]x2
Then

Gtr. 2
C#[------------------]
G#[------------------]
E [------------------]
B [-7----8----8----7-]
F#[-5----5----4----4-]
B [------------------]x2

Gtr. 1
C#[------------------------------------------------]
G#[------------------------------------------------]
E [-7/9/10/9/7---7/9/10/9/7---9/10--9/10--6/9--6/9-]
B [-----------7------------7-----------------------]
F#[------------------------------------------------]
B [------------------------------------------------]x2

Then

Gtr. 1
C#[-------------------------]
G#[-------------------------]
E [-13/13/13/13/13/13/13/13-]
B [--x--x--x--x--x--x--x--x-]
F#[-11/11/11/11/11/11/11/11-]
B [-------------------------]

Chorus 3

C#[----------------------------------------------]
G#[--9---------------------10--------------------]
E [------------7---------------------7-----------]
B [---0-1/0/0----0/1/0/1/0---0-1/0/0---0/1/0/1/0-]
F#[---0-1/0/0----0/1/0/1/0---0-1/0/0---0/1/0/1/0-]x3
B [---0-1/0/0----0/1/0/1/0---0-1/0/0---0/1/0/1/0-]

C#[--------------------------------------]
G#[--9---------------------10------------]
E [------------7---------------------7S<-]
B [---0-1/0/0----0/1/0/1/0---0-1/0/0-----]
F#[---0-1/0/0----0/1/0/1/0---0-1/0/0-----]
B [---0-1/0/0----0/1/0/1/0---0-1/0/0-----]
            
Submit corrections

comments powered by Disqus
↑ Back to top | Demon Hunter Tabs for Fire To My Soul. Lyrics for acoustic guitar and electric guitar. 1 Tablatures and chords are parodies/interpretations of the original songs. You may use it for private study, scholarship, research or language learning purposes only