>
 >
Driving Nails

Driving Nails Guitar Tabs

Demon Hunter - Driving Nails chords, tabs, tablatures, lyrics

Guitar lessons | Add/correct | Request | Top 50 tabs Artists:  A B C D E F G H I J K L M N O P Q R S T U V W X Y Z 0-9

Driving Nails Guitar Tabs – Demon Hunter

CD, Sheet music, Poster

Do you like Driving Nails? Share with your friends now
ChordsTabsUkulele
Tuning: Drop B

| /   slide up
| \   slide down
| .   palm-mute
| ~   let ring

All guitars tuned B Gb b E Ab Db
 {Gtr 1 - distorted electric
 {Gtr 2 - distorted electric

So epic. :) Hope you enjoy this Demon Hunter re-creation.

[Intro]
0:00
   {Gtr 1
Db|-------------------------------------------|
Ab|-------------------------------------------|
E |-------------------------------------------|
b |--77777-----22222222-999999-5-3-000000-55--|
Gb|--77777-----22222222-999999-5-3-000000-55--|
B |--77777-----22222222-999999-5-3-000000-55--|
   {Gtr 2
Db|-------------------------------------------|
Ab|-------------------------------------------|
E |--22222-545----------444444----------------|
b |------------22222222--------5-3-000000-55--|
Gb|-------------------------------------------|
B |-------------------------------------------|

0:08
   {Gtr 1                        /-Tens-\
Db|---------------------------------------------|
Ab|---------------------------------------------|
E |---------------------------------------------|
b |--77777-----22222222-55555555-10101010-9999--|
Gb|--77777-----22222222-55555555-10101010-9999--|
B |--77777-----22222222-55555555-10101010-9999--|
   {Gtr 2
Db|---------------------------------------------|
Ab|---------------------------------------------|
E |--22222-545----------77777777-5-5-5-5--4444--|
b |------------22222222-------------------------|
Gb|---------------------------------------------|
B |---------------------------------------------|


[Verse 1]
0:16
   {Gtr 1
Db|-----------------------------------------|
Ab|-----------------------------------------|
E |-----------------------------------------|
b |--7-----/--10-\-2--/-3--------2------/---|
Gb|--7-----/--10-\-2--/-3--------2------/---|
B |--7-----/--10-\-2--/-3--------2------/---|
   {Gtr 2
Db|-----------------------------------------|
Ab|-----------------------------------------|
E |--55555555-4444-4444-22222222-5555-4444--|
b |-----------------------------------------|
Gb|-----------------------------------------|
B |-----------------------------------------|

0:24
   {Gtr 1
Db|-----------------------------------------|
Ab|-----------------------------------------|
E |-----------------------------------------|
b |--7-----/--10-\-2----0-------------5-----|
Gb|--7-----/--10-\-2----0-------------5-----|
B |--7-----/--10-\-2----0-------------5-----|
   {Gtr 2
Db|-----------------------------------------|
Ab|---------------------55555555-6666-3333--|
E |--55555555-4444-0000---------------------|
b |-----------------------------------------|
Gb|-----------------------------------------|
B |-----------------------------------------|

0:32
   {Gtr 1
Db|-----------------------------------------|
Ab|-----------------------------------------|
E |-----------------------------------------|
b |--7-----/--10-\-2--/-3--------2------/---|
Gb|--7-----/--10-\-2--/-3--------2------/---|
B |--7-----/--10-\-2--/-3--------2------/---|
   {Gtr 2
Db|-----------------------------------------|
Ab|-----------------------------------------|
E |--55555555-4444-4444-22222222-5555-4444--|
b |-----------------------------------------|
Gb|-----------------------------------------|
B |-----------------------------------------|

0:40
   {Gtr 1
Db|-----------------------------------------|
Ab|-----------------------------------------|
E |-----------------------------------------|
b |--7-----/--10-\-2----0-------------------|
Gb|--7-----/--10-\-2----0-------------------|
B |--7-----/--10-\-2----0-------------------|
   {Gtr 2
Db|-----------------------------------------|
Ab|---------------------55555555-6666-3333--|
E |--55555555-4444-0000---------------------|
b |-----------------------------------------|
Gb|-----------------------------------------|
B |-----------------------------------------|


[Pre-Chorus]
0:48
   {Gtr 1
Db|------------------------------------------------------|
Ab|------------------------------------------------------|
E |------------------------------------------------------|
b |--3--/-5--/-12---------------10-------9---------------|
Gb|--3--/-5--/-12---------------10-------9---------------|
B |--3--/-5--/-12---------------10-------9---------------|
   {Gtr 2      /- - -Tens- - -\--------------------------|
Db|------------------------------------------------------|
Ab|-------8888-1010101010101010--------------------------|
E |--5555-----------------------99999999-77777-----------|
b |--------------------------------------------10\9-7----|
Gb|------------------------------------------------------|
B |------------------------------------------------------|

0:56
   {Gtr 1
Db|-----------------------------------------------------------|
Ab|-----------------------------------------------------------|
E |-----------------------------------------------------------|
b |--3--/-5--/-12---------------10---------------9------3--5--|
Gb|--3--/-5--/-12---------------10---------------9------3--5--|
B |--3--/-5--/-12---------------10---------------9------3--5--|
   {Gtr 2      /- - - - - - -Tens- - - - - - -\
Db|-----------------------------------------------------------|
Ab|-------8888-1010101010101010-------------------------------|
E |-----------------------------1010101010101010-99999--------|
b |--7777-----------------------------------------------------|
Gb|-----------------------------------------------------------|
B |-----------------------------------------------------------|


[Chorus] Play the Intro for this


[Verse 2]
1:20
   {Gtr 1
Db|-------------|
Ab|-------------|
E |-------------|
b |--3-3-3-2-/--|
Gb|--3-3-3-2-/--|
B |--3-3-3-2-/--|

1:22
   {Gtr 1
Db|-----------------------------------------|
Ab|-----------------------------------------|
E |-----------------------------------------|
b |--7-----/--10-\-2--/-3--------2------/---|
Gb|--7-----/--10-\-2--/-3--------2------/---|
B |--7-----/--10-\-2--/-3--------2------/---|
   {Gtr 2
Db|-----------------------------------------|
Ab|-----------------------------------------|
E |--55555555-4444-4444-22222222-5555-4444--|
b |-----------------------------------------|
Gb|-----------------------------------------|
B |-----------------------------------------|

1:30
   {Gtr 1
Db|-----------------------------------------|
Ab|-----------------------------------------|
E |-----------------------------------------|
b |--7-----/--10-\-2----0-------------------|
Gb|--7-----/--10-\-2----0-------------------|
B |--7-----/--10-\-2----0-------------------|
   {Gtr 2
Db|-----------------------------------------|
Ab|---------------------55555555-6666-3333--|
E |--55555555-4444-0000---------------------|
b |-----------------------------------------|
Gb|-----------------------------------------|
B |-----------------------------------------|


[Bridge]
2:26
   {Gtr 1
Db|-----------------|
Ab|-----------------|
E |-----------------|
b |--7~-------------|
Gb|--7~-------------|
B |--7~-------------|
   {Gtr 2
Db|----------------------------------------------------------------------|
Ab|----------------------------------------------------------------------|
E |--5555555555555555-4444444444444444-7777777777777777-5555555555555555-|
b |----------------------------------------------------------------------|
Gb|----------------------------------------------------------------------|
B |----------------------------------------------------------------------|

2:42
   {Gtr 1
Db|-----------------------------------------------------------------------|
Ab|-----------------------------------------------------------------------|
E |-----------------------------------------------------------------------|
b |--10~--------------9~---------------12~--------------10~---------------|
Gb|--10~--------------9~---------------12~--------------10~---------------|
B |--10~--------------9~---------------12~--------------10~---------------|
   {Gtr 2
Db|-----------------------------------------------------------------------|
Ab|-----------------------------------------------------------------------|
E |--5555555555555555-4444444444444444-7777777777777777-5555555555555555--|
b |-----------------------------------------------------------------------|
Gb|-----------------------------------------------------------------------|
B |-----------------------------------------------------------------------|

2:58
   {Gtr 1
Db|------------------------------------------------------|
Ab|------------------------------------------------------|
E |--5555555555555555--7-7-7-7-7-7-7-7-7-7-7-7-7-7-7-7---|
b |--5555555555555555--7-7-7-7-7-7-7-7-7-7-7-7-7-7-7-7---|
Gb|--3333333333333333--5-5-5-5-5-5-5-5-5-5-5-5-5-5-5-5---|
B |------------------------------------------------------|
   {Gtr 2              /- - -Tens- - -\/- Fourteens -\
Db|------------------------------------------------------|
Ab|------------------------------------------------------|
E |--5555555555555555--10101010101010101414141414141414--|
b |------------------------------------------------------|
Gb|------------------------------------------------------|
B |------------------------------------------------------|

This is normally played with some nifty orchestral strings, but if you're lacking some 
of those then you can play this. ;)
3:06
   {Gtr 2
Db|---------8--------8-------7------7-------7-------7-----------|
Ab|------10-------10-------8-------8------8-------8---10-10/12--|
E |----9--------9--------7-------7------7-------7---------------|
b |--7--------7--------5-------5------5-------5-------7--7/9----|
Gb|-------------------------------------------------------------|
B |-------------------------------------------------------------|
     ................................................

   {Gtr 2
Db|---------8--------8-------7------7-------7-------7--------|
Ab|------10-------10-------8-------8------8-------8---13-12--|
E |----9--------9--------7-------7------7-------7------------|
b |--7--------7--------5-------5------5-------5-------10-9---|
Gb|----------------------------------------------------------|
B |----------------------------------------------------------|
     ................................................

--->  Pick slide!  <---

[Chorus] x2, then end it with:
3:54
   {Gtr 1
Db|----------------|
Ab|----------------|
E |----------------|
b |--3-3-3-2-/-7~--|
Gb|--3-3-3-2-/-7~--|
B |--3-3-3-2-/-7~--|


Hope you enjoyed it. God bless :)





Comments


Popular Demon Hunter tabs & chords
Lifewar Bass Tabs
I Am A Stone 2 Chords
Tomorrow Never Comes Chords
Carry Me Down 1 Tabs
Grand Finale Tabs
Latest And The Last Tabs
No Reason To Exist Tabs
Science Of Lies 2 Tabs
Soldiers Song Intro Tabs
Fading Away 2 Ukulele


Song lyrics



↑ Back to top | Tablatures and chords are parodies/interpretations of the original songs. You may use it for private study, scholarship, research or language learning purposes only
© 2014 AZChords.com Contact us | Privacy policy | DMCA | Add/correct tabs | Request tabs | Top 50 tabs