>
 >
Desire The Pain

Desire The Pain Guitar Tabs

Demon Hunter - Desire The Pain chords, tabs, tablatures, lyrics

Guitar lessons | Add/correct | Request | Top 50 tabs Artists:  A B C D E F G H I J K L M N O P Q R S T U V W X Y Z 0-9

Desire The Pain Guitar Tabs – Demon Hunter

CD, Sheet music, Poster

Do you like Desire The Pain? Share with your friends now
Tabs
"Desire The Pain" By Demon Hunter
The Rhythm isn't always exact, but good enough so that you know what part you're playing.
The notes are 100% though.

P.S. I don't mind if you copy some of this for a powertab/guitarpro tab, but if you do 
give me a shout out lol :)
Thanks Again!

INTRO
Gtr. 1
C#------------------------------------------------------|
G#------------------------------------------------------|
E ------------------------------------------------------|
B --------------------------------------------------X2--|
F#-------555555------------------555555-----------------|
B -555555------000000777777444444------000000777777-----|

Gtr. 2
C#-------------------------------------------------------------------------|
G#-------------------------------------------------------------------------|
E -12-12-12-12-12-12-12-12-12-12-12-12-12-12-12-12-12-12-12-12-12-12-12-12-|
B --x--x--x--x--x--x--x--x--x--x--x--x--x--x--x--x--x--x--x--x--x--x--x--x-|
F#-10-10-10-10-10-10-10-10-10-10-10-10-10-10-10-10-10-10-10-10-10-10-10-10-|
B -------------------------------------------------------------------------|

C#-------------------------------------------------------------------|
G#-------------------------------------------------------------------|
E -11-11-11-11-11-11-11-11-11-11-11-11-11-11-11-11-11-11-11-11-11-11-|
B --x--x--x--x--x--x--x--x--x--x--x--x--x--x--x--x--x--x--x--x--x--x-|
F#--9--9--9--9--9--9--9--9--9--9--9--9--9--9--9--9--9--9--9--9--9--9-|
B -------------------------------------------------------------------|
X2

VERSE
Gtr. 1
C#---------|
G#---------|
E ---------|
B -5-------|
F#-5-------|
B -5-------|

C#---------------------------------------------------|
G#---------------------------------------------------|
E ----------------------------------444455-----------|
B -5555577779999955------44444444444222222444444-X3--|
F#-555555555555555599999922222222222222222222222-----|
B -555555555555555555555522222222222222222222222-----|

Gtr. 2
C#-------------------------------------------------------------------------|
G#-------------------------------------------------------------------------|
E -12-12-12-12-12-12-12-12-12-12-12-12-12-12-12-12-12-12-12-12-12-12-12-12-|
B --x--x--x--x--x--x--x--x--x--x--x--x--x--x--x--x--x--x--x--x--x--x--x--x-|
F#-10-10-10-10-10-10-10-10-10-10-10-10-10-10-10-10-10-10-10-10-10-10-10-10-|
B -------------------------------------------------------------------------|

C#-------------------------------------------------------------------|
G#-------------------------------------------------------------------|
E -11-11-11-11-11-11-11-11-11-11-11-11-11-11-11-11-11-11-11-11-11-11-|
B --x--x--x--x--x--x--x--x--x--x--x--x--x--x--x--x--x--x--x--x--x--x-|
F#--9--9--9--9--9--9--9--9--9--9--9--9--9--9--9--9--9--9--9--9--9--9-|
B -------------------------------------------------------------------|

C#----------------------5--------------|
G#------------------3----3-3-----------|
E ----7------7-----2-2----2-2-----X3---|
B ---5-5-9-5--5---4---4------4---------|
F#--5---5---5--5-2---------------------|
B -5-----------------------------------|

PRE-CHORUS
Gtr. 1
C#-------------------------------------------------|
G#-------------------------------------------------|
E -5-5-5-5-5-5-5-5-5-5-5-5-------------------------|
B -5-5-5-5-5-5-5-5-5-5-5-5-0-0-0-0-0-0-0-0-0-0-0-0-|
F#-3-3-3-3-3-3-3-3-3-3-3-3-0-0-0-0-0-0-0-0-0-0-0-0-|
B -------------------------0-0-0-0-0-0-0-0-0-0-0-0-|

C#-------------------------------------------------|
G#-------------------------------------------------|
E -------------------------------------------------|
B -2-2-2-2-2-2-2-2-2-2-2-2-5-5-5-5-5-5-5-5-5-5-5-5-|
F#-2-2-2-2-2-2-2-2-2-2-2-2-5-5-5-5-5-5-5-5-5-5-5-5-|
B -2-2-2-2-2-2-2-2-2-2-2-2-5-5-5-5-5-5-5-5-5-5-5-5-|

C#-------------------------------------------------|
G#-------------------------------------------------|
E -5-5-5-5-5-5-5-5-5-5-5-5-------------------------|
B -5-5-5-5-5-5-5-5-5-5-5-5-0-0-0-0-0-0-0-0-0-0-0-0-|
F#-3-3-3-3-3-3-3-3-3-3-3-3-0-0-0-0-0-0-0-0-0-0-0-0-|
B -------------------------0-0-0-0-0-0-0-0-0-0-0-0-|

C#------------------------------------------------|
G#------------------------------------------------|
E ------------------------------------------------|
B -2-2-2-2-2-2-2-2-2-2-2-2-3---3---3---3---3---3--|
F#-2-2-2-2-2-2-2-2-2-2-2-2-3---3---3---3---3---3--|
B -2-2-2-2-2-2-2-2-2-2-2-2-3---3---3---3---3---3--|

Gtr. 2
C#-------------------------------------------------------------------------|
G#-------------------------------------------------------------------------|
E -12-12-12-12-12-12-12-12-12-12-12-12-11-11-11-11-11-11-11-11-11-11-11----|
B --x--x--x--x--x--x--x--x--x--x--x--x--x--x--x--x--x--x--x--x--x--x--x----|
F#-10-10-10-10-10-10-10-10-10-10-10-10--9--9--9--9--9--9--9--9--9--9--9----|
B -------------------------------------------------------------------------|

C#------------------------------------------------------------|
G#------------------------------------------------------------|
E -11-11-11-11-11-11-11-11-11-11-11-7-7-7-7-7-7-7-7-7-7-7-7-7-|
B --x--x--x--x--x--x--x--x--x--x--x-x-x-x-x-x-x-x-x-x-x-x-x-x-|
F#--9--9--9--9--9--9--9--9--9--9--9-5-5-5-5-5-5-5-5-5-5-5-5-5-|
B ------------------------------------------------------------|

C#-------------------------------------------------------------------------|
G#-------------------------------------------------------------------------|
E -12-12-12-12-12-12-12-12-12-12-12-12-11-11-11-11-11-11-11-11-11-11-11----|
B --x--x--x--x--x--x--x--x--x--x--x--x--x--x--x--x--x--x--x--x--x--x--x----|
F#-10-10-10-10-10-10-10-10-10-10-10-10--9--9--9--9--9--9--9--9--9--9--9----|
B -------------------------------------------------------------------------|

C#----------------------------------------------------------------------|
G#----------------------------------------------------------------------|
E -11-11-11-11-11-11-11-11-11-11-11-12-12-12-12-12-12-12-12-12-12-12-12-|
B --x--x--x--x--x--x--x--x--x--x--x--x--x--x--x--x--x--x--x--x--x--x--x-|
F#--9--9--9--9--9--9--9--9--9--9--9-10-10-10-10-10-10-10-10-10-10-10-10-|
B ----------------------------------------------------------------------|

CHORUS
Gtr. 1
C#------------------------------------------------------|
G#------------------------------------------------------|
E ------------------------------------------------------|
B ------------------------------------------------------|
F#-------555555------------------555555-----------------|
B -555555------000000777777444444------000000777777-----|

Gtr. 2
C#-------------------------------------------------------------------------|
G#-------------------------------------------------------------------------|
E -12-12-12-12-12-12-12-12-12-12-12-12-12-12-12-12-12-12-12-12-12-12-12-12-|
B --x--x--x--x--x--x--x--x--x--x--x--x--x--x--x--x--x--x--x--x--x--x--x--x-|
F#-10-10-10-10-10-10-10-10-10-10-10-10-10-10-10-10-10-10-10-10-10-10-10-10-|
B -------------------------------------------------------------------------|

C#-------------------------------------------------------------------|
G#-------------------------------------------------------------------|
E -11-11-11-11-11-11-11-11-11-11-11-11-11-11-11-11-11-11-11-11-11-11-|
B --x--x--x--x--x--x--x--x--x--x--x--x--x--x--x--x--x--x--x--x--x--x-|
F#--9--9--9--9--9--9--9--9--9--9--9--9--9--9--9--9--9--9--9--9--9--9-|
B -------------------------------------------------------------------|

VERSE 2
Gtr. 1
C#---------------------------------------------------|
G#---------------------------------------------------|
E ----------------------------------444455-----------|
B -5555577779999955------44444444444222222444444-----|
F#-555555555555555599999922222222222222222222222-----|
B -555555555555555555555522222222222222222222222-----|

Gtr. 2
C#----------------------5--------------|
G#------------------3----3-3-----------|
E ----7------7-----2-2----2-2----------|
B ---5-5-9-5--5---4---4------4---------|
F#--5---5---5--5-2---------------------|
B -5-----------------------------------|


PRE-CHORUS
CHORUS

BRIDGE
Gtr. 1
C#-------|
G#-------|
E -------|
B -5-----|
F#-5-----|
B -5-----|

C#-----------------------------------0---------------------------------|
G#-----------------------------------0---------------------------------|
E -----------------------------------0---------------------------------|
B -2-2-2-2-3-0-2-2-2-3-0-2-2-2-3-230---2-2-2-2-3-0-2-2-2-3-0-2-2-2-3-0-|
F#-2-2-2-2-3-0-2-2-2-3-0-2-2-2-3-230---2-2-2-2-3-0-2-2-2-3-0-2-2-2-3-0-|
B -2-2-2-2-3-0-2-2-2-3-0-2-2-2-3-230---2-2-2-2-3-0-2-2-2-3-0-2-2-2-3-0-|

C#-----------------------------------0---------------------------0-|
G#-----------------------------------0---------------------------0-|
E -----------------------------------0---------------------------0-|
B ---------------------------------------------------------2-1-0---|
F#---------------------------------------------------------2-1-0---|
B -2-2-2-2-3-0-2-2-2-3-0-2-2-2-3-230---2-2-2-2-3-0-2-2-2-3-2-1-0---|

Gtr. 2

C#---------|
G#---------|
E -12------|
B --x------|
F#-10------|
B ---------|

C#---------------------------0-----------------------0--|
G#---------------------------0-----------------------0--|
E -9999-109999-109999-109109-0-9999-109999-109999-10-0--|
B -xxxx--xxxxx--xxxxx--xx-xx---xxxx--xxxxx--xxxxx--x----|
F#-7777--87777--87777--87-87---7777--87777--87777--8----|
B ------------------------------------------------------|

C#----------------------------------------------0-----------------------|
G#----------------------------------------------0-----------------------|
E -12121212-111111111111-111111111111--12111211-0-12121212-111111111111-|
B --x-x-x-x--x-x-x-x-x-x--x-x-x-x-x-x---x-x-x-x----x-x-x-x--x-x-x-x-x-x-|
F#-10101010--9-910101010--9-910101010--10-910-9---10101010--9-910101010-|
B ----------------------------------------------------------------------|

C#---------0----------------------------|
G#---------0----------------------------|
E ---9-8-7-0----------------------------|
B ---x-x-x------------------------------|
F#---7-6-5------------------------------|
B -0------------------------------------|

SOLO
Gtr. 1 (Rhythm)
C#---------------------------------------------------|
G#---------------------------------------------------|
E ----------------------------------444455-----------|
B -5555577779999955------44444444444222222444444-----|
F#-555555555555555599999922222222222222222222222-----|
B -555555555555555555555522222222222222222222222-----|

Gtr. 2
C#--------------------------------------------------|
G#--------------------------------------------------|
E -------14b16b14-12-12-----11h12h14-11/7-------9*--|
B -0----------------------12-------------9~---------|
F#--------------------------------------------------|
B --------------------------------------------------|

C#-------------------------------------------------------------------|
G#--10b12b10-8-8----8------------------------------------------------|
E ---------------11---9~----11~----12-11-9---9-11-9--------------9~--|
B ----------------------------------------12-------12-10-9-12-10-----|
F#-------------------------------------------------------------------|
B -------------------------------------------------------------------|

CHORUS





Comments


Popular Demon Hunter tabs & chords
Not I Bass Tabs
1000 Apologies Tabs
Beauty Through The Eyes Of A Predator Tabs
Fading Away 1 Tabs
Lifewar Tabs
My Heartstrings Come Undone Tabs
Our Faces Fall Apart Intro Tabs
Science Of Lies 2 Tabs
Soldiers Song Tabs
Fading Away 2 Ukulele


Song lyrics



↑ Back to top | Tablatures and chords are parodies/interpretations of the original songs. You may use it for private study, scholarship, research or language learning purposes only
© 2014 AZChords.com Contact us | Privacy policy | DMCA | Add/correct tabs | Request tabs | Top 50 tabs