>
 >
Descending Upon Us

Descending Upon Us Guitar Tabs

Demon Hunter - Descending Upon Us chords, tabs, tablatures, lyrics

Guitar lessons | Add/correct | Request | Top 50 tabs Artists:  A B C D E F G H I J K L M N O P Q R S T U V W X Y Z 0-9

Descending Upon Us Guitar Tabs – Demon Hunter

CD, Sheet music, Poster

Do you like Descending Upon Us? Share with your friends now
Tabs
"Collapsing" By Demon Hunter
The Rhythm isn't always exact, but good enough so that you know what part you're playing.
The notes are 100% though.
Some of the parts were actually in the other guitar part but it made much more sense to 
to assign them where i did.

P.S. I don't mind if you copy some of this for a powertab/guitarpro tab, but if you do 
give me a shout out lol :)
Thanks Again!

INTRO 1
Gtr.1
C#-----|---------------------------------------------------------------|
G#-----|---------------------------------------------------------------|
E ---5-|-7---7-9-10--9--5---5-7-9--7---3-5-7--5--2---2-10-9-797-5--X2--|
B -----|---------------------------------------------------------------|
F#-----|---------------------------------------------------------------|
B -----|---------------------------------------------------------------|

C#---------------------------------------------------------------------------|
G#---------------------------------------------------------------------------|
E 7---7-9-10--12--9---9-10-12--14--10---10-12-14--12--9---9-14-12-101210-9---|
B ---------------------------------------------------------------------------|
F#---------------------------------------------------------------------------|
B ---------------------------------------------------------------------------|

C#---------------------------------------------------------|
G#---------------------------------------------------------|
E 7---7-9-10--12--9---9-10-12--14--10---10-12-14--15--12---|
B ---------------------------------------------------------|
F#---------------------------------------------------------|
B ---------------------------------------------------------|

C#----------------------------------|
G#-12-17-15-141514-12---------------|
E ----------------------------------|
B ----------------------------------|
F#----------------------------------|
B ----------------------------------|

Gtr. 2
C#-----|---------------------------------------------------------------|
G#--5--|-6---6-8-10--8--5---5-6-8--6---3-5-6--5--1---1-10-8-686-5--X2--|
E -----|---------------------------------------------------------------|
B -----|---------------------------------------------------------------|
F#-----|---------------------------------------------------------------|
B -----|---------------------------------------------------------------|

C#---------------------------------------------------------------------------|
G#-6---6-8-10--11--8---8-10-11--13--10---10-11-13--11--8---8-13-11-101110-8--|
E ---------------------------------------------------------------------------|
B ---------------------------------------------------------------------------|
F#---------------------------------------------------------------------------|
B ---------------------------------------------------------------------------|


C#-----------------------------------------------------------|
G#-6---6-8-10--11--8---8-10-11--13--10---10-11-13--15--11----|
E -----------------------------------------------------------|
B -----------------------------------------------------------|
F#-----------------------------------------------------------|
B -----------------------------------------------------------|


C#----------------------------------|
G#-11-17-15-13h15p13-10-------------|
E ----------------------------------|
B ----------------------------------|
F#----------------------------------|
B ----------------------------------|

INTRO 2
Gtr. 1
C#----------------------------------|
G#----------------------------------|
E ----------------------------------|
B -0----1--0---3--6-----------------|
F#-0----1--0---3--6--X6-------------|
B -0----1--0---3--6-----------------|

Gtr. 2
C#----------------------------------|
G#----------------------------------|
E -7----8--7---10--8----------------|
B -x----x--x----x--x---X6-----------|
F#-5----6--5----8--6----------------|
B ----------------------------------|

Gtr. 3
C#------------Play Last 2 Times-----|
G#----------------------------------|
E -14----15--14---17--15------------|
B --x-----x---x----x---x------------|
F#-12----13--12---15--13------------|
B ----------------------------------|

INTRO 3
Gtr. 1
C#-----------------------------------------------------------|
G#-----------------------------------------------------------|
E ---------------------8---------7------------------55558888-|
B -000-0-0-000-0-0-0-0-x-0-0-0-0-x-0-0-------5------33336666-|
F#-000-0-0-000-0-0-0-0-6-0-0-0-0-5-0-0-6-5-6--6-5p0-33336666-|
B -000-0-0-000-0-0-0-0---0-0-0-0---0-0--------------33336666-|

C#-----------------------------------------------------------------|
G#-----------------------------------------------------------------|
E ---------------------8---------7---------------------------------|
B -000-0-0-000-0-0-0-0-x-0-0-0-0-x-0-0-----------------------------|
F#-000-0-0-000-0-0-0-0-6-0-0-0-0-5-0-0-----------------------------|
B -000-0-0-000-0-0-0-0---0-0-0-0---0-0-330-330-330-8-7-0-7-6-0-5-4-|
X2 then
C#-----------------------------------------------------------|
G#-----------------------------------------------------------|
E ---------------------8---------7------------------55558888-|
B -000-0-0-000-0-0-0-0-x-0-0-0-0-x-0-0-------5------33336666-|
F#-000-0-0-000-0-0-0-0-6-0-0-0-0-5-0-0-6-5-6--6-5p0-33336666-|
B -000-0-0-000-0-0-0-0---0-0-0-0---0-0--------------33336666-|

Gtr. 2
C#-----------------------------------------------------------|
G#---------------------11-------10---------------------------|
E ----------------------x--------x-----------7------55558888-|
B -000-0-0-000-0-0-0-0--8-0-0-0--7-0-0-8-7-8--8-7p0-33336666-|
F#-000-0-0-000-0-0-0-0----0-0-0----0-0--------------33336666-|
B -000-0-0-000-0-0-0-0----0-0-0----0-0--------------33336666-|

C#-----------------------------------------------------------------|
G#---------------------11-------10---------------11-10--10-9---9-8-|
E ----------------------x--------x----------------x--x---x-x---x-x-|
B -000-0-0-000-0-0-0-0--8-0-0-0--7-0-0------------8--7---7-6---6-5-|
F#-000-0-0-000-0-0-0-0----0-0-0----0-0-----------------0-----0-----|
B -000-0-0-000-0-0-0-0----0-0-0----0-0-330-330-330-----0-----0-----|
X2 then
C#------------------------------|
G#-11----------10---------------|
E --x-----------x------55558888-|
B --8-----------7------33336666-|
F#---------------------33336666-|
B ---------------------33336666-|

VERSE
Gtr. 1
C#-----------------------------------------------------------|
G#-----------------------------------------------------------|
E ---------------------8---------7------------------55558888-|
B -000-0-0-000-0-0-0-0-x-0-0-0-0-x-0-0-------5------33336666-|
F#-000-0-0-000-0-0-0-0-6-0-0-0-0-5-0-0-6-5-6--6-5p0-33336666-|
B -000-0-0-000-0-0-0-0---0-0-0-0---0-0--------------33336666-|

C#-----------------------------------------------------------------|
G#-----------------------------------------------------------------|
E ---------------------8---------7---------------------------------|
B -000-0-0-000-0-0-0-0-x-0-0-0-0-x-0-0-----------------------------|
F#-000-0-0-000-0-0-0-0-6-0-0-0-0-5-0-0-----------------------------|
B -000-0-0-000-0-0-0-0---0-0-0-0---0-0-330-330-330-8-7-0-7-6-0-5-4-|

Gtr. 2
C#-----------------------------------------------------------|
G#---------------------11-------10---------------------------|
E ----------------------x--------x-----------7------55558888-|
B -000-0-0-000-0-0-0-0--8-0-0-0--7-0-0-8-7-8--8-7p0-33336666-|
F#-000-0-0-000-0-0-0-0----0-0-0----0-0--------------33336666-|
B -000-0-0-000-0-0-0-0----0-0-0----0-0--------------33336666-|

C#-----------------------------------------------------------------|
G#---------------------11-------10---------------11-10--10-9---9-8-|
E ----------------------x--------x----------------x--x---x-x---x-x-|
B -000-0-0-000-0-0-0-0--8-0-0-0--7-0-0------------8--7---7-6---6-5-|
F#-000-0-0-000-0-0-0-0----0-0-0----0-0-----------------0-----0-----|
B -000-0-0-000-0-0-0-0----0-0-0----0-0-330-330-330-----0-----0-----|


PRE-CHORUS
C#---------------------------------------------------------------------|
G#---------------------------------------------------------------------|
E ---------------------------------------------------------------------|
B -2-3-3-3-3-3-3-3-3-3-3-3-2--2--2-2-3-2-3-3-3-3-3-3-3-3-3-3-3-6--6--2-|
F#-2-3-3-3-3-3-3-3-3-3-3-3-2--2--2-2-3-2-3-3-3-3-3-3-3-3-3-3-3-6--6--2-|
B -2-3-3-3-3-3-3-3-3-3-3-3-2--2--2-2-3-2-3-3-3-3-3-3-3-3-3-3-3-6--6--2-|

C#-------------------------------------------------------------|
G#-------------------------------------------------------------|
E -------------------------------------------------------------|
B -2-3-3-3-3-3-3-3-3-3-3-3-2--2--2-2-3-2-3-3-3-3-3-3-3-3-3-3-3-|
F#-2-3-3-3-3-3-3-3-3-3-3-3-2--2--2-2-3-2-3-3-3-3-3-3-3-3-3-3-3-|
B -2-3-3-3-3-3-3-3-3-3-3-3-2--2--2-2-3-2-3-3-3-3-3-3-3-3-3-3-3-|

CHORUS
Gtr. 1
C#------------------------------------------------------|
G#------------------------------------------------------|
E ------------------------------------------------------|
B -0---1----8--3----3----0--8--0--1----8-7-3----3-------|
F#-0---1----8--3----3----0--8--0--1----8-7-3----3---X2--|
B -0---1----8--3----3----0--8--0--1----8-7-3----3-------|

Gtr. 2
C#------------------------------------------------------------|
G#------------------------------------------------------------|
E -7-7-7-7-7-7-7-8-8-8-8-8-8-8-15-15-10-10-10-10-10-10-10-10--|
B -x-x-x-x-x-x-x-x-x-x-x-x-x-x--x--x--x--x--x--x--x--x--x--x--|
F#-5-5-5-5-5-5-5-6-6-6-6-6-6-6-13-13--8--8--8--8--8--8--8--8--|
B ------------------------------------------------------------|

C#--------------------------------------------------------------|
G#--------------------------------------------------------------|
E -7-7-7-15-15-7-7-8-8-8-8-8-8-8-12-12-10-10-10-10-10-10-10-10--|
B -x-x-x--x--x-x-x-x-x-x-x-x-x-x--x--x--x--x--x--x--x--x--x--x--|
F#-5-5-5-13-13-5-5-6-6-6-6-6-6-6-10-10--8--8--8--8--8--8--8--8--|
B --------------------------------------------------------------|

BRIDGE 1
Gtr. 1
C#------------------------------------------|
G#------------------------------------------|
E ---------------------------------------8b-|
B ---------------------------------0-----x--|
F#---------------------------------0-----6b-|
B -8-7-0-7-6-0-6-5-0-5-4-0-4-3-2-1-0--------|

Gtr. 2
C#-----------------------------------------------------------------|
G#-11-10--10-9---9-8---8-7---7-6-5-4-------------------------------|
E --x--x---x-x---x-x---x-x---x-x-x-x----------9*-------------------|
B --8--7---7-6---6-5---5-4---4-3-2-1--0---(depress whammy and hit--|
F#-------0-----0-----0-----0----------0----harmonic while raising)-|
B -------0-----0-----0-----0----------0----------------------------|

VERSE
PRECHORUS
CHORUS

BRIDGE 2
Gtr. 1
C#---------------------------------|
G#---------------------------------|
E ---------------------------------|
B ---------------------------------|
F#---------------------------------|
B -8-7-0-7-6-0-6-5-0-5-4-0-4-3-2-1-|

Gtr. 2
C#------------------------------------------------------------------|
G#-11-10--10-9---9-8---8-7---7-6-5-4--------------------------------|
E --x--x---x-x---x-x---x-x---x-x-x-x----------9*--------------------|
B --8--7---7-6---6-5---5-4---4-3-2-1--0---(depress whammy and hit---|
F#-------0-----0-----0-----0----------0----harmonic while raising)--|
B -------0-----0-----0-----0----------------------------------------|

Gtr. 3
C#----------------------------------|
G#----------------------------------|
E ----9*----------------------------|
B ---(depress whammy and hit--------|
F#----harmonic while raising)-------|
B ----------------------------------|

BREAKDOWN
C#-----------------------x--------------------------|
G#------------------------x-------------------------|
E --(hit natural-harmonic--x------------------------|
B ---and raise whammy bar)--x-----------------------|
F#----------------5*---------x----------------------|
B -0--0--0----0-00---0-00-----x--0-2-3-0-2-3-0-2-3--|

CHORUS

OUTRO

Gtr. 1
C#------------------------------------|
G#------------------------------------|
E ------------------------------------|
B -0----1---0-------------------------|
F#-0----1---0-------------------------|
B -0----1---0-------------------------|

Gtr. 2
C#----------------------------------|
G#----------------------------------|
E -7----8---7-----------------------|
B -x----x---x-----------------------|
F#-5----6---5-----------------------|
B ----------------------------------|

Gtr. 3
C#-10----11---10--------------------|
G#--x-----x----x--------------------|
E --7-----8----7--------------------|
B ----------------------------------|
F#----------------------------------|
B ----------------------------------|





Comments


Popular Demon Hunter tabs & chords
A Broken Upper Hand Tabs
Collapsing Tabs
Desire The Pain Tabs
Grand Finale Tabs
Lead Us Home Tabs
Means To An End Tabs
My Destiny Tabs
My Throat Is An Open Grave Tabs
No Reason To Exist Tabs
Soldiers Song Intro Tabs


Song lyrics



↑ Back to top | Tablatures and chords are parodies/interpretations of the original songs. You may use it for private study, scholarship, research or language learning purposes only
© 2014 AZChords.com Contact us | Privacy policy | DMCA | Add/correct tabs | Request tabs | Top 50 tabs