>
 >
Collapsing

Collapsing Guitar Tabs

Demon Hunter - Collapsing chords, tabs, tablatures, lyrics

Guitar lessons | Add/correct | Request | Top 50 tabs Artists:  A B C D E F G H I J K L M N O P Q R S T U V W X Y Z 0-9

Collapsing Guitar Tabs – Demon Hunter

CD, Sheet music, Poster

Do you like Collapsing? Share with your friends now
Bass TabsTabs
"Collapsing" By Demon Hunter
The Rhythm isn't always exact, but good enough so that you know what part you're playing.
The notes are 100% though.

P.S. I don't mind if you copy some of this for a powertab/guitarpro tab, but if you do 
give me a shout out lol :)
Thanks Again!

INTRO
Gtr. 1
C#------------------------------------------------------------------|
G#------------------------------------------------------------------|
E ------------------------------------------------------------------|
B ------------------------------------------------------------------|
F#------------------------------------------------------------------|
B -7-7-7-7-7-10-10-10-5-5-5-5-9-9-9-5-0-0-0---0-12/--0-3-03-2-2-5-5-|

C#-----------------------------------------------------------------------|
G#-----------------------------------------------------------------------|
E -----------------------------------------------------------------------|
B -----------------------------------------------------------------------|
F#-----------------------------------------------------------------------|
B -7-7-7-7-7-10-10-10-5-5-5-5-9-9-9-5-0-0-0---0-12/--0-3-3-3-2-2-2-5-5-5-|

C#------------------------------------------------------------------------|
G#------------------------------------------------------------------------|
E ------------------------------------------------------------------------|
B ------------------------------------------------------------------------|
F#--------------------------------------------(Pinch Harmonic)------------|
B -7-7-7-7-7-10-10-10-5-5-5-5-9-9-9-5-0-0-0---0-3*--03-32-25--7b-7b-00000-|

Gtr. 2
C#------------------------------------------------------------------|
G#------------------------------------------------------------------|
E ------------------------------------------------------------------|
B ------------------------------------------------------------------|
F#------------------------------------------------------------------|
B -7-7-7-7-7-10-10-10-5-5-5-5-9-9-9-5-0-0-0---0-12/--0-3-03-2-2-5-5-|

C#-------------------------------------------------------------------------|
G#/13-13-13-13-13-13-13-13-13/15-15-15-15-15-15-15-15/10-10-10-10-10-10-10-|
E -------------------------------------------------------------------------|
B -------------------------------------------------------------------------|
F#-------------------------------------------------------------------------|
B -------------------------------------------------------------------------|

C#----------------------------------------------------------------------------|
G#-10-10-10-10-10-10/12-12/13-13-13-13-13-13-13-13-13/15-15-15-15-15-15-15-15-|
E ----------------------------------------------------------------------------|
B ----------------------------------------------------------------------------|
F#----------------------------------------------------------------------------|
B ----------------------------------------------------------------------------|

C#------------------------------------------------------------------|
G#/17-17---17-17---17w-17w-17w-17W----------------------------------|
E --------------(tap whammy bar down, last time keep pressing down)-|
B ------------------------------------------------------------------|
F#------------------------------------------------------------------|
B ------------------------------------------------------------------|


VERSE
C#-----------------------------------------------------------------|
G#-----------------------------------------------------------------|
E -----------------------------------------------------------------|
B -0--0--00-0-00-0--0-00--00-0-00--0--0--00-0-00-------------------|
F#-0--0--00-0-00-0--0-00--00-0-00--0--0--00-0-00-------------------|
B -0--0--00-0-00-0--0-00--00-0-00--0--0--00-0-00-3-3-3-2-2-2-5-5-5-|

C#-------------------------------------------------------------|
G#-------------------------------------------------------------|
E -------------------------------------------------------------|
B -0--0--00-0-00-0--0-00--00-0-00--0--0--00-0-00-3-----2-5-5-5-|
F#-0--0--00-0-00-0--0-00--00-0-00--0--0--00-0-00-3-----2-5-5-5-|
B -0--0--00-0-00-0--0-00--00-0-00--0--0--00-0-00-3-----2-5-5-5-|

C#--------------------------------------------------------|
G#--------------------------------------------------------|
E --------------------------------------------------------|
B -0--0--00-0-0-0-0-0-0-0-0-0--0--0-0-0-------------------|
F#-0--0--00-0-0-0-0-0-0-0-0-0--0--0-0-0-------------------|
B -0--0--00-0-0-0-0-0-0-0-0-0--0--0-0-0-3-3-3-2-2-2-5-5-5-|

C#----------------------------------------------------|
G#----------------------------------------------------|
E ----------------------------------------------------|
B -0--0--00-0-0-0-0-0-0-0-0-0--0--0-0-0-3-----2-5-5-5-|
F#-0--0--00-0-0-0-0-0-0-0-0-0--0--0-0-0-3-----2-5-5-5-|
B -0--0--00-0-0-0-0-0-0-0-0-0--0--0-0-0-3-----2-5-5-5-|

PRE-CHORUS

Gtr. 1
C#------------------------------------------------------------------|
G#------------------------------------------------------------------|
E ------------------------1010101010101010--------------------------|
B -7-6-00-5-4-00-3-2-0-0---x-x-x-x-x-x-x-x----X3--7-6-00-5-4-00-3-2-|
F#-5-4-00-3-2-00-3-2-0-0---8-8-8-8-8-8-8-8--------5-4-00-3-2-00-3-2-|
B -----00-----00-3-2-0-0------------------------------00-----00-3-2-|

C#----------------------------------------------------|
G#-10-13-13-13-12-12-12-12----------------------------|
E -------------------------10-12-10-12-12/14/12-10-12-|
B ----------------------------------------------------|
F#----------------------------------------------------|
B ----------------------------------------------------|

C#-------------13/15----------------|
G#-10-12-10-12-------14-12-14-------|
E ----------------------------------|
B ----------------------------------|
F#----------------------------------|
B ----------------------------------|

Gtr. 2
C#----------------------------------|
G#----------------------------------|
E ----------------------------------|
B -7-6-00-5-4-00-3-2-0-0------------|
F#-5-4-00-3-2-00-3-2-0-0--X3--------|
B -----00-----00-3-2-0-0------------|

C#---------------------------------------------------|
G#---------------------------------------------------|
E ---------------------------------------------------|
B -7-6-00-5-4-00-3-2-0---0---3---3---5-5-5-5-5-5-5-5-|
F#-5-4-00-3-2-00-3-2-0---0---3---3---5-5-5-5-5-5-5-5-|
B -----00-----00-3-2-0---0---3---3---5-5-5-5-5-5-5-5-|

CHORUS

Gtr. 1
C#-----------------------------------------------------------------------|
G#-----------------------------------------------------------------------|
E -----------------------------------------------------------------------|
B -----------------------------------------------------------------------|
F#-----------------------------------------------------------------------|
B -7-7-7-7-7-10-10-10-5-5-5-5-9-9-9-5-0-0-0---0-12/--0-3-3-3-2-2-2-5-5-5-|

C#-------------------------------------------------------------|
G#-------------------------------------------------------------|
E -------------------------------------------------------------|
B -------------------------------------------------------------|
F#--------------------------------------------(Pinch Harmonic)-|
B -7-7-7-7-7-10-10-10-5-5-5-5-9-9-9-5-0-0-0---0-3*--03-32-25---|

C#-----------------------------------------------------------------------|
G#-----------------------------------------------------------------------|
E -----------------------------------------------------------------------|
B -----------------------------------------------------------------------|
F#-----------------------------------------------------------------------|
B -7-7-7-7-7-10-10-10-5-5-5-5-9-9-9-5-0-0-0---0-12/--0-3-3-3-2-2-2-5-5-5-|

C#-------------------------------------------------------------|
G#-------------------------------------------------------------|
E -------------------------------------------------------------|
B -------------------------------------------------------------|
F#--------------------------------------------(Pinch Harmonic)-|
B -7-7-7-7-7-10-10-10-5-5-5-5-9-9-9-5-0-0-0---0-3*--03-32-25---|

Gtr.2
C#-------------------------------------------------------------------------|
G#/13-13-13-13-13-13-13-13-13/15-15-15-15-15-15-15-15/10-10-10-10-10-10-10-|
E -------------------------------------------------------------------------|
B -------------------------------------------------------------------------|
F#-------------------------------------------------------------------------|
B -------------------------------------------------------------------------|

C#----------------------------------------------------------------------------|
G#-10-10-10-10-10-10/12-12/13-13-13-13-13-13-13-13-13/15-15-15-15-15-15-15-15-|
E ----------------------------------------------------------------------------|
B ----------------------------------------------------------------------------|
F#----------------------------------------------------------------------------|
B ----------------------------------------------------------------------------|

C#------------------------------------------------------------------|
G#/17-17-17-17-17-17-17-17-17-17------------------------------------|
E ------------------------------------------------------------------|
B ------------------------------------------------------------------|
F#------------------------------------------------------------------|
B ------------------------------------------------------------------|

C#-------------------------------------------------------------------------|
G#/13-13-13-13-13-13-13-13-13/15-15-15-15-15-15-15-15/10-10-10-10-10-10-10-|
E -------------------------------------------------------------------------|
B -------------------------------------------------------------------------|
F#-------------------------------------------------------------------------|
B -------------------------------------------------------------------------|

C#----------------------------------------------------------------------------|
G#-10-10-10-10-10-10/12-12/13-13-13-13-13-13-13-13-13/15-15-15-15-15-15-15-15-|
E ----------------------------------------------------------------------------|
B ----------------------------------------------------------------------------|
F#----------------------------------------------------------------------------|
B ----------------------------------------------------------------------------|

C#------------------------------------------------------------------|
G#/17-17---17-17---17w-17w-17w-17w----------------------------------|
E ------------------------------------------------------------------|
B ------------------------------------------------------------------|
F#------------------------------------------------------------------|
B ------------------------------------------------------------------|

Verse 2
Gtr. 1

C#--------------------------------------------------------|
G#--------------------------------------------------------|
E --------------------------------------------------------|
B -0--0--00-0-0-0-0-0-0-0-0-0--0--0-0-0-------------------|
F#-0--0--00-0-0-0-0-0-0-0-0-0--0--0-0-0-------------------|
B -0--0--00-0-0-0-0-0-0-0-0-0--0--0-0-0-3-3-3-2-2-2-5-5-5-|

C#----------------------------------------------------|
G#----------------------------------------------------|
E ----------------------------------------------------|
B -0--0--00-0-0-0-0-0-0-0-0-0--0--0-0-0-3-----2-5-5-5-|
F#-0--0--00-0-0-0-0-0-0-0-0-0--0--0-0-0-3-----2-5-5-5-|
B -0--0--00-0-0-0-0-0-0-0-0-0--0--0-0-0-3-----2-5-5-5-|

C#--------------------------------------------------------|
G#--------------------------------------------------------|
E --------------------------------------------------------|
B -0--0--00-0-0-0-0-0-0-0-0-0--0--0-0-0-------------------|
F#-0--0--00-0-0-0-0-0-0-0-0-0--0--0-0-0-------------------|
B -0--0--00-0-0-0-0-0-0-0-0-0--0--0-0-0-3-3-3-2-2-2-5-5-5-|

C#----------------------------------------------------------|
G#----------------------------------------------------------|
E ----------------------------------------------------------|
B -0--0--00-0-0-0-0-0-0-0-0-0--0--0-0-0-3-----2-5-5-5-0--0--|
F#-0--0--00-0-0-0-0-0-0-0-0-0--0--0-0-0-3-----2-5-5-5-0--0--|
B -0--0--00-0-0-0-0-0-0-0-0-0--0--0-0-0-3-----2-5-5-5-0--0--|

Gtr. 2
C#-------------------------------------------|
G#---------------------------17*w------------|
E -----7*w-------5*w-------------------------|
B -------------------------------------------|
F#-(depress whammy and hit harmonic----------|
B ---and then raise up and do heavy vibrato)-


PRE-CHORUS
CHORUS


Bridge
Gtr. 1
C#---------------------|
G#---------------------|
E ---------------------|
B -3---5--4--5--7------|
F#-3---3--2--5--7------|
B -3---------5--7------|

Gtr. 2
C#--------------------------------------------------------------------------|
G#-17W--13--12--8--101010101010101010101010101111111110101010101010-9-9-9-9-|
E -------x---x--x---x-x-x-x-x-x-x-x-x-x-x-x-x-x-x-x-x-x-x-x-x-x-x-x-x-x-x-x-|
B ------10---9--5---7-7-7-7-7-7-7-7-7-7-7-7-7-8-8-8-8-7-7-7-7-7-7-7-6-6-6-6-|
F#--------------------------------------------------------------------------|
B --------------------------------------------------------------------------|

Solo
Gtr. 1 (Rhythm)
C#--------------------------------------------------|
G#--------------------------------------------------|
E --------------------------------------------------|
B -0---0-0--0-0----0-0----0--0-0--0-0---1-1-1-1-----|
F#-0---0-0--0-0----0-0----0--0-0--0-0---1-1-1-1--X3-|
B -0---0-0--0-0----0-0----0--0-0--0-0---1-1-1-1-----|

C#----------------------------------------------------------------|
G#----------------------------------------------------------------|
E ----------------------------------------------------------------|
B -0---0-0--0-0----0-0----0--0-0--0-0---1-1-1-1-1-1-1-1-1-1-1-1-1-|
F#-0---0-0--0-0----0-0----0--0-0--0-0---1-1-1-1-1-1-1-1-1-1-1-1-1-|
B -0---0-0--0-0----0-0----0--0-0--0-0---1-1-1-1-1-1-1-1-1-1-1-1-1-|

Gtr. 2 (Lead)
C#-13b14----------------------------------------------------|
G#-13b14---13h17p13h17p13h17p13h17p13h17p13h17p13h17p13h17p-|
E ----------------------------------------------------------|
B -----------Keep holding the 13 frets bent while tapping---|
F#------------the 17th fret with your pick, then bend back--|
B --------------down----------------------------------------|

C#-------------------15-------------------------------|
G#------17-----18-------------------------------------|
E ---14-----14----14----14-17-16-15-14w---------------|
B -----------------------------(quick whammy depress)-|
F#----------------------------------------------------|
B ----------------------------------------------------|

C#-12p10h12p10-----12p10h12p10----13p10-----12p10h12p10-----12p10h12p10---|
G#------------12p10-----------12p10----12p10----------12p10---------------|
E ------------------------------------------------------------------------|
B ------------------------------------------------------------------------|
F#------------------------------------------------------------------------|
B ------------------------------------------------------------------------|

C#------13p10-----12p10-----13p10-----15p10-----13p10-----12p10------|
G#-12p10-----12p10-----12p10-----12p10-----12p10-----12p10-----12p10-|
E -------------------------------------------------------------------|
B -------------------------------------------------------------------|
F#-------------------------------------------------------------------|
B -------------------------------------------------------------------|

C#-13p10-----13b15---------------------------------------------------------|
G#------12p10---------13w----10-13-15-10-13-15-10-13-15-10-13-15-10-13-15--|
E --------------------14w--------------------------------------------------|
B -------(whammy vibrato)--------------------------------------------------|
F#-------------------------------------------------------------------------|
B -------------------------------------------------------------------------|

C#--------------------10h12-12b13b12p10h12p10-|
G#-13b15v-------------------------------------|
E --------------------------------------------|
B --------------------------------------------|
F#--------------------------------------------|
B --------------------------------------------|

C#------12---------------------------------------13b15w----------------------|
G#-13p10--13p10----------------------13w---13p10--(whammy vibrato and raise)-|
E -------------13-12-10--------10h12b14w-------------------------------------|
B ---------------------12p10h12-------(whammy vibrato)-----------------------|
F#---------------------------------------------------------------------------|
B ---------------------------------------------------------------------------|

INTERLUDE
C#----------------------------------|
G#----------------------------------|
E ----------------------------------|
B ----------------------------------|
F#----------------------------------|
B -0---0----3-3-3-2-2-2-5-5-5-------|

CHORUS

OUTRO

Gtr. 1
C#-----------------------------------------------------------------------|
G#-----------------------------------------------------------------------|
E -----------------------------------------------------------------------|
B -----------------------------------------------------------------------|
F#-----------------------------------------------------------------------|
B -7-7-7-7-7-10-10-10-5-5-5-5-9-9-9-5-0-0-0---0-12/--0-3-3-3-2-2-2-5-5-5-|

C#-------------------------------------------------------------|
G#-------------------------------------------------------------|
E -------------------------------------------------------------|
B -------------------------------------------------------------|
F#--------------------------------------------(Pinch Harmonic)-|
B -7-7-7-7-7-10-10-10-5-5-5-5-9-9-9-5-0-0-0---0-3*--03-32-25---|

Gtr. 2
C#-------------------------------------------------------------------------|
G#/13-13-13-13-13-13-13-13-13/15-15-15-15-15-15-15-15/10-10-10-10-10-10-10-|
E -------------------------------------------------------------------------|
B -------------------------------------------------------------------------|
F#-------------------------------------------------------------------------|
B -------------------------------------------------------------------------|

C#----------------------------------------------------------------------------|
G#-10-10-10-10-10-10/12-12/13-13-13-13-13-13-13-13-13/15-15-15-15-15-15-15-15-|
E ----------------------------------------------------------------------------|
B ----------------------------------------------------------------------------|
F#----------------------------------------------------------------------------|
B ----------------------------------------------------------------------------|

C#------------------------------------------------------------------|
G#/17-17---17-17---17w-17w-17w-17w----------------------------------|
E ------------------------------------------------------------------|
B ------------------------------------------------------------------|
F#------------------------------------------------------------------|
B ------------------------------------------------------------------|

C#----------------------------------|
G#----------------------------------|
E ----------------------------------|
B ----------------------------------|
F#----------------------------------|
B ----------------------------------|





Comments


Popular Demon Hunter tabs & chords
My Heartstrings Come Undone Bass Tabs
Beheaded Chords
Driving Nails Chords
Gauntlet Tabs
Latest And The Last Tabs
Not Ready To Die Intro Tabs
One Thousand Apologies Tabs
One Thousand ApologiesIntro Tabs
This I Know Tabs
I Am A Stone Ukulele


Song lyrics



↑ Back to top | Tablatures and chords are parodies/interpretations of the original songs. You may use it for private study, scholarship, research or language learning purposes only
© 2014 AZChords.com Contact us | Privacy policy | DMCA | Add/correct tabs | Request tabs | Top 50 tabs