» » »

Demon Hunter, Beheaded Tabs (ver.1)

Artists:  A B C D E F G H I J K L M N O P Q R S T U V W X Y Z # 

Beheaded Tabs (ver.1)

Demon Hunter Tabs
 Rating:
4/5 (9 votes)
Beheaded lessons Tabs too difficult? Try these video lessons and learn fast
                
Beheaded- Demon Hunter
Tuning: A whole step down and drop B# (B#G#B#E#AD)
* = Mute
. = Palm mute
Intro Riff:
D------------------|
A------------------|
E#-----------------|
B#-7-1-2-3-7-1-2-3-|
G#-7-1-2-3-7-1-2-3-|
B#-7-1-2-3-7-1-2-3-|
2x

Intro Part II/Verse:
(during verse do not mute)
D--------------------------------------------------
A--------------------------------------------------
E#-------------------------------------------------
B#-7-0-0-7-0-0-7-0-0-7-0-7-6-0-0-6-0-0-6-0-0-6-0-6-
G#-7-0-0-7-0-0-7-0-0-7-0-7-6-0-0-6-0-0-6-0-0-6-0-6-
B#-7-0-0-7-0-0-7-0-0-7-0-7-6-0-0-6-0-0-6-0-0-6-0-6-
     * *   * *   * *   *     * *   * *   * *   *
D--------------------------|
A--------------------------|
E#-------------------------|
B#-3-0-0-3-0-0-3-0-0-3-0-3-|
G#-3-0-0-3-0-0-3-0-0-3-0-3-|
B#-3-0-0-3-0-0-3-0-0-3-0-3-|
     * *   * *   * *   *

Pre-Chorus (Mike's part):
D--------------------------------|
A--------------------------------|
E#-------------------------------|
B#-7-7-7-7---6-6-6-6---3-3-3-3---|
G#-7-7-7-7---6-6-6-6---3-3-3-3---|
B#-7—7-7-7---6-6-6-6---3-3-3-3---|

Chorus:
D----------------------------------
A----------------------------------
E#---------------------------------
B#-0-0-0---0-0---0-0-0---0-0-7-1-2-
G#-0-0-0---0-0---0-0-0---0-0-7-1-2-
B#-0-0-0---0-0---0-0-0---0-0-7-1-2-
   . . .   . .   . . .   . .       
D----------------------------------|
A----------------------------------|
E#---------------------------------|
B#-0-0-0-0-0-0-0-0-0-0-0-0-0-7-1-2-|
G#-0-0-0-0-0-0-0-0-0-0-0-0-0-7-1-2-|
B#-0-0-0-0-0-0-0-0-0-0-0-0-0-7-1-2-|
   . . . . . . . . . . . . .

Bridge:
D------------------|
A------------------|
E#-----------------|
B#-0--/7---6---2-3-|
G#-0--/7---6---2-3-|
B#-0--/7---6---2-3-|

If you do not have the new Demon Hunter CD "Summer of Darkness"...go get it!
It is amazing.  This is a great song too.  Email me with any questions.
In Christ,
Chalice of Insanity <>< \m/
            
Submit corrections

comments powered by Disqus
↑ Back to top | Demon Hunter Tabs for Beheaded. Lyrics for acoustic guitar and electric guitar. Tablatures and chords are parodies/interpretations of the original songs. You may use it for private study, scholarship, research or language learning purposes only