» » »

Demon Hunter, Beauty Through The Eyes Of A Predator Tabs (ver.2)

Artists:  A B C D E F G H I J K L M N O P Q R S T U V W X Y Z # 

Beauty Through The Eyes Of A Predator Tabs (ver.2)

Demon Hunter Tabs
 Rating:
4/5 (4 votes)
Beauty Through The Eyes Of A Predator lessons Tabs too difficult? Try these video lessons and learn fast
                Beauty Through The Eyes of a Predator
on The Summer of Darkness


This is probably my favorite song off the album.  I think it's absolutely brutal. 

Drop B tuning


Verse Riff:

C#[------------------|-----------------|-----------------|-----------------]
G#[------------------|-----------------|-----------------|-----------------]
E [------------------|-----------------|-----------------|-----------------] 8x
B [------7-----------|-----7-----------|-----7-----------|-----7-----------]
F#[--0h3-5-0-0h5-0h3-|-0h3-5-0-0h6-0h1-|-0h3-5-0-0h5-0h3-|-0h3-5-0-4p0-1h3-]
B [--0h3---0-0h5-0h3-|-0h3---0-0h6-0h1-|-0h3---0-0h5-0h3-|-0h3---0-4p0-1h3-]


Pre-Chorus:

C#[------------------|-----------------|-----------------|-----------------]
G#[------------------|---------11------|---------11------|-----------------]
E [------------------|-----------------|-----------------|-----------------]
B [----------7-------|---------8-------|---------8-------|-----------------] 2x
F#[--0-0---0-5-------|-0-0---0-7-------|-0-0---0-9-------|-0-0---0-8p7-5h7-]
B [--0-0---0---------|-0-0---0---------|-0-0---0---------|-0-0---0-8p7-5h7-]

C#[------------------|-----------------|-----------------|-----------------]
G#[------------------|---------11------|---------11------|-----------------]
E [------------------|-----------------|-----------------|-----------------]
B [----------7-------|---------8-------|---------8-------|-----------------] 2x
F#[--0-0-0-0-5-------|-0-0-0-0-7-------|-0-0-0-0-9-------|-0-0-0-0-8p7-5h7-]
B [--0-0-0-0---------|-0-0-0-0---------|-0-0-0-0---------|-0-0-0-0-8p7-5h7-]
     * * * *           * * * *           * * * *           * * * *


Chorus:

C#[---------|---------|---------|-------------]
G#[---------|---------|---------|-------------]
E [---------|---------|---------|-------------]
B [---------|--2---2--|---------|--3---3------]
F#[--0---0--|--0---0--|--1---1--|--1---1------]
B [--0---0--|---------|--1---1--|-------------]

C#[---------|---------|---------|-------------]
G#[---------|---------|---------|-------------]
E [---------|---------|---------|-------------]
B [---------|--2---2--|---------|-------------]
F#[--0---0--|--0---0--|--1---1--|--1---1-3----]
B [--0---0--|---------|--1---1--|--1---1-3----]

C#[---------|---------|---------|-------------]
G#[---------|---------|---------|-------------]
E [---------|---------|---------|-------------]
B [---------|--2---2--|---------|--3---3/5-5--]
F#[--0---0--|--0---0--|--1---1--|--1---1/3-3--]
B [--0---0--|---------|--1---1--|-------------]

C#[---------|---------|---------|-------------]
G#[---------|---------|---------|-------------]
E [---------|---------|---------|-------------]
B [---------|--2---2--|---------|-------------]
F#[--0---0--|--0---0--|--1---1--|--1~---------]
B [--0---0--|---------|--1---1--|--1~---------]


Pre-Bridge:

C#[----------]
G#[----------]
E [----------]
B [----------]4x
F#[--12/--0--]
B [--12/--0--]


Bridge:

C#[------------------|-------------------]
G#[------------------|-------------------]
E [------------------|-------------------]
B [------------------|-------------------] 4x
F#[--7/12--0--5p4-3--|----5-----4--------]
B [--7/12--0--5p4-3--|--3---0h2---0-1p0--]
    "Peddle your faith...."


Outro:
"I feel my lungs...beginning to burn..."

C#[------------8-------|------------------]
G#[------------12------|------------------]
E [--------------------|------------------]
B [------------9-------|------------------] ~10x
F#[--000--000--8---000-|-000----5---4---3-]
B [--000--000------000-|-000--3---2---1---]
     ***  ***      ***   ***

(I can play that chord, barring the 8, pinky on the 12...
alternately, you could drop the high chromatic diad and just
play the augmented 4th...or add a second guitarist...)


Order:
  Verse Riff 8x
  Pre-Chorus
  Chorus
  Verse Riff 8x
  Pre-Chorus
  Chorus
  Pre-Bridge
  Bridge
  Chorus (twice)
  Outro
            
Submit corrections

comments powered by Disqus
↑ Back to top | Demon Hunter Tabs for Beauty Through The Eyes Of A Predator. Lyrics for acoustic guitar and electric guitar. Tablatures and chords are parodies/interpretations of the original songs. You may use it for private study, scholarship, research or language learning purposes only