» » »

A Broken Upper Hand Tabs (ver.1)

Artists:  A B C D E F G H I J K L M N O P Q R S T U V W X Y Z # 

A Broken Upper Hand Tabs (ver.1)

Demon Hunter
Rating:
3/5 (2 votes)

Hard to play? Try these video lessons and learn fast.
                
Revised by:  Andrew Jackson

Tuning: Db,Ab,Db,Gb,Bb,eb

\ = slide
\\ = slide slower
h = hammer-on
p = pull-off
. = palm mute
* = harmonic

Intro: I didn't count out the 4's...too many.
eb|------------------------------------------------------------------------------
Bb|------------------------------------------------------------------------------
Gb|------------------------------------------------------------------------------
Db|-12\\\\\\\\4444444444444444444444444444\\\33\\2222----------------------------
Ab|-12\\\\\\\\4444444444444444444444444444\\\33\\2222----------------------------
Db|-12\\\\\\\\4444444444444444444444444444\\\33\\2222----------------------------
                                                                              
intro 2: bend the first part as you slide
eb|------------------------------------------------------------------------------
Bb|------------------------------------------------------------------------------
Gb|------------------------------------------------------------------------------
Db|-0-1/2b--2h3p2--0h5p3--0h2h3--------------------------------------------------
Ab|-0-1/2b--2h3p2--0h5p3--0h2h3--------------------------------------------------
Db|-0-1/2b--2h3p2--0h5p3--0h2h3--------------------------------------------------

intro 3:
eb|------------------------------------------------------------------------------
Bb|------------------------------------------------------------------------------
Gb|----6/8\6/8-----6/8\6---------------------------------------------------------
Db|-0--x-x-x-x--0--x-x-x---------------------------------------------------------
Ab|-0--4/6\4/6--0--4/6\4---------------------------------------------------------
Db|-0-----------0----------------------------------------------------------------
   
verse: guitar 1, all palm muted
eb|------------------------------------------------------------------------------
Bb|------------------------------------------------------------------------------
Gb|------------------------------------------------------------------------------
Db|-0-0---0-0-0--0-0-0--0-0-0----------------------------------------------------
Ab|-0-0---0-0-0--0-0-0--0-0-0----------------------------------------------------
Db|-0-0---0-0-0--0-0-0--0-0-0----------------------------------------------------
    . .   . . .  . . .  . . .

Verse: Guitar 2

eb|-4-4-4---4-4----4-4-4-5-5-5---------------------------------------------------
Bb|------------------------------------------------------------------------------
Gb|------------------------------------------------------------------------------
Db|------------------------------------------------------------------------------
Ab|------------------------------------------------------------------------------
Db|------------------------------------------------------------------------------

   Pre-chorus to chorus: again, didn't count the 4's
eb|------------------------------------------------------------------------------
Bb|------------------------------------------------------------------------------
Gb|------------------------------------------------------------------------------
Db|-1-1-1-1/-8-8-8-8--4444444444444444444\\33\\2222------------------------------
Ab|-1-1-1-1/-8-8-8-8--4444444444444444444\\33\\2222------------------------------
Db|-1-1-1-1/-8-8-8-8--4444444444444444444\\33\\2222------------------------------
                                                                              
pre-breakdown:
eb|------------------------------------------------------------------------------
Bb|------------------------------------------------------------------------------
Gb|------------------------------------------------------------------------------
Db|-12\-1-0-0-0-0-0-0-0-0-0-0-0--------------------------------------------------
Ab|-12\-1-0-0-0-0-0-0-0-0-0-0-0--------------------------------------------------
Db|-12\-1-0-0-0-0-0-0-0-0-0-0-0--------------------------------------------------
          . . . . . . . . . . .

breakdown: guitar 1...various speeds
eb|------------------------------------------------------------------------------
Bb|------------------------------------------------------------------------------
Gb|------------------------------------------------------------------------------
Db|-0-2--2h3p2--0h5p3--0h2h3-----------------------------------------------------
Ab|-0-2--2h3p2--0h5p3--0h2h3-----------------------------------------------------
Db|-0-2--2h3p2--0h5p3--0h2h3-----------------------------------------------------

breakdown: guitar 2

eb|-4-4-4---4-4----4-4-4-5-5-5---------------------------------------------------
Bb|------------------------------------------------------------------------------
Gb|------------------------------------------------------------------------------
Db|------------------------------------------------------------------------------
Ab|------------------------------------------------------------------------------
Db|------------------------------------------------------------------------------

end on:
eb|------------------------------------------------------------------------------
Bb|----*3------------------------------------------------------------------------
Gb|----*3------------------------------------------------------------------------
Db|-0----------------------------------------------------------------------------
Ab|-0----------------------------------------------------------------------------
Db|-0----------------------------------------------------------------------------
            
Hard to play? Try these video lessons and learn fast. | Correct




comments powered by Disqus
↑ Back to top | Tablatures and chords are parodies/interpretations of the original songs. You may use it for private study, scholarship, research or language learning purposes only