» » »

Skyscraper Tabs (ver.1)

Artists:  A B C D E F G H I J K L M N O P Q R S T U V W X Y Z # 

Skyscraper Tabs (ver.1)

Demi Lovato
Rating:
0/5 (0 votes)

Hard to play? Try these video lessons and learn fast.
                this is my 1st tab, so enjoy:))
No capo



Intro:

Sky's are crying, I am watching, catching teardrops in my hand
Only silence, as It's ending. It's like we never had a chance...
      G           Em           C          D

E|---3--3---------0--0-------0--0------2---2-------------------------------------------------|
B|------0------------0----------2----------3-------------------------------------------------|
G|---0------------0----------0---------2-----------------------------------------------------|
D|-------------------------------------------------------------------------------------------|
A|-------------------------------------------------------------------------------------------|
E|-------------------------------------------------------------------------------------------|
  REPEAT 2x

Do you have to make me feel like there's nothing left of me...
    G                      Em                    C                           D
E|--3---------3------------0---------0------------0-----------0--------------2------------2---|
B|-----0---------0-------------0--------0-------------1------------1-------------3------------|
G|--0---------0------------0---------0------------0-----------0--------------2-------------2--|
D|--------0----------0------------2---------2-------------2------------2--------------0-------|
A|--------------------------------------------------------------------------------------------|
E|--------------------------------------------------------------------------------------------|

You can take everything I have. You can break everything I am
     G               Em        C           D
E|---3--3---------0--0-------0--0------2---2-------------------------------------------------|
B|------0------------0----------2----------3-------------------------------------------------|
G|---0------------0----------0---------2-----------------------------------------------------|
D|-------------------------------------------------------------------------------------------|
A|-------------------------------------------------------------------------------------------|
E|-------------------------------------------------------------------------------------------|

Like I'm made of glass. Like I'm made of paper. Go on and try to tear me down.
I will be rising from the ground like a skyscr*per. Like a skyscr*per...
     G                     Em                     C                          D
E|--3---------3------------0---------0------------0-----------0--------------2------------2---|
B|-----0---------0-------------0--------0-------------1------------1-------------3------------|
G|--0---------0------------0---------0------------0-----------0--------------2-------------2--|
D|--------0----------0------------2---------2-------------2------------2--------------0-------|
A|--------------------------------------------------------------------------------------------|
E|--------------------------------------------------------------------------------------------|
 REPEAT 2X


Verse 2:

       G
As the smoke clears
    Em       C               D
I awaken and untangle you from me
         G           Em
Would it make you, feel better
   C               D
To watch me while I bleed?
       G                  Em
All my windows, still are broken
        C             D
But I'm standing on my feet

Chorus:

             G            Em
You can take everything I have
                 C        D
You can break everything I am
                 G
Like I'm made of glass
  eM              D
Like I'm made of paper
           G           Em
Go on and try to tear me down
        C                D
I will be rising from the ground
           G       Em
Like a skyscr*per
          C     D
Like a skyscr*per

Bridge:
Am              C
  Go run, run, run
                        G
I'm gonna stay right here
                   D
Watch you disappear
Am              C
  Go run run run
                        G
Yeah its a long way down
                                D
But I'm closer to clouds up here



You can take everything I have. You can break everything I am
     G               Em        C           D
E|---3--3---------0--0-------0--0------2---2-------------------------------------------------|
B|------0------------0----------2----------3-------------------------------------------------|
G|---0------------0----------0---------2-----------------------------------------------------|
D|-------------------------------------------------------------------------------------------|
A|-------------------------------------------------------------------------------------------|
E|-------------------------------------------------------------------------------------------|

Like I'm made of glass. Like I'm made of paper... OOH!
     G                     Em                     C                          D
E|--3---------3------------0---------0------------0-----------0--------------2------------2---|
B|-----0---------0-------------0--------0-------------1------------1-------------3------------|
G|--0---------0------------0---------0------------0-----------0--------------2-------------2--|
D|--------0----------0------------2---------2-------------2------------2--------------0-------|
A|--------------------------------------------------------------------------------------------|
E|--------------------------------------------------------------------------------------------|





G               D
Go on and try to tear me down
           Em                 C
I will be rising from the ground
           G                    D
Like a skyscr*per, like a skyscr*per
          Em                    C
Like a skyscr*per, like a skyscr*per
      G
Like a skyscr*per

G Em C D 2X
            
Hard to play? Try these video lessons and learn fast. | Correct




comments powered by Disqus
↑ Back to top | Tablatures and chords are parodies/interpretations of the original songs. You may use it for private study, scholarship, research or language learning purposes only