» » »

Delux, Yo Pense Tabs (ver.2)

Artists:  A B C D E F G H I J K L M N O P Q R S T U V W X Y Z # 

Yo Pense Tabs (ver.2)

Delux Tabs
 Rating:
4/5 (4 votes)
Yo Pense lessons Tabs too difficult? Try these video lessons and learn fast
1
                HOLA A TO2 OTRA VEZ
AKI LES SUBO ESTA TAB
SI KIEREN MAS
DUDAS A MI MAIL

NOTA: YO NO LE PUSE COMO VAN LOS TIEMPOS
      PORQUE CADA QUIEN LOS ACOMODA A SU GUSTO
      ASI KE PUSE LAS PURAS NOTAS, MAS NO LOS TIEMPOS
      PERO SOLO EN ALGUNAS PARTES

GUITARRA 1: LEO
GUITARRA 2: MO

Intro:
Solo la guitarra dos, y en donde empieza a cantar Mo, se mete las dos guitarras

GUITARRA 2

       “Yo pensé     que éste era mi lugar
E|--------------------------------|
B|--------------------------------|
G|--------------------------------|
D|-2/4-44-4-4-------4/7-77-7-7----|
A|-2/4-44-4-4-------4/7-77-7-7----|
D|-2/4-44-4-4-------4/7-77-7-7----|

Aquí entran las dos
“No entiendo el sufrimiento......”

GUITARRA 1 (ustedes busquen los tiempos
            Porque luego no me entienden)
E|--------------------------------|
B|--------------------------------|
G|-7---9---11---14----------------|
D|-X---X---X----X-----------------|
A|-5---7---9----12----------------|
D|--------------------------------|


GUITARRA 2 (esta se queda en ese acorde)
E|--------------------------------|
B|--------------------------------|
G|--------------------------------|
D|--000000000000------------------|
A|--000000000000------------------|
D|--000000000000------------------|

Luego en:
“yo soñé.....”

GUITARRA 1
E|-----------------------------------------|
B|-----------------------------------------|
G|---9/11-1111-11-11---11/14-1414-14-14----|
D|---X/X--X-X--X--X----X-/X--X-X--X--X-----|
A|---7/9--9-9--9--9----9-/12-1212-12-12----|
D|-----------------------------------------|

GUITARRA 2
E|--------------------------------|
B|--------------------------------|
G|--------------------------------|
D|-2/4-44-4-4-------4/7-77-7-7----|
A|-2/4-44-4-4-------4/7-77-7-7----|
D|-2/4-44-4-4-------4/7-77-7-7----|

“No entiendo el sufrimiento.....”

GUITARRA 1
E|--------------------------------|
B|--------------------------------|
G|-7---9---11---14----------------|
D|-X---X---X----X-----------------|
A|-5---7---9----12----------------|
D|--------------------------------|


GUITARRA 2
E|--------------------------------|
B|--------------------------------|
G|--------------------------------|
D|--000000000000------------------|
A|--000000000000------------------|
D|--000000000000------------------|

Y TERMINA EN

GUITARRA 1
E|--------------------------------|
B|--------------------------------|
G|--11~---------------------------|
D|--X~----------------------------|
A|--9~----------------------------|
D|--------------------------------|

GUITARRA 2
E|--------------------------------|
B|--------------------------------|
G|--------------------------------|
D|--4~----------------------------|
A|--4~----------------------------|
D|--4~----------------------------|

CORO:
“Regrésame me estoy hundiendo.....”

ENTRANLAS DOS GUITARRAS (ustedes busquen los tiempos)
E|--------------------------------|
B|--------------------------------|
G|------6-------------------------|
D|--7---6---0---2-----------------|
A|--7---4---0---2-----------------|
D|--7-------0---2-----------------|

“Regrésame me estoy muriendo.....”

GUITARRA 1
E|--------------------------------|
B|--------------------------------|
G|-11--14---7---9-----------------|
D|-X---X----X---X-----------------|
A|-9---12---5---7-----------------|
D|--------------------------------|


GUITARRA 2
E|--------------------------------|
B|--------------------------------|
G|--------------------------------|
D|-4---7---0---2------------------|
A|-4---7---0---2------------------|
D|-4---7---0---2------------------|


Verso
“Yo soñé, con una vida.....”

GUITARRA 1
E|--------------------------------|
B|--------------------------------|
G|--XX-11-XX-11-X-11-XX-11-XX-11--|
D|--XX-X--XX-X--X-X--XX-X--XX-X---|
A|--XX-9--XX-9--X-9--XX-9--XX-9---|
D|--------------------------------|

E|--------------------------------|
B|--------------------------------|
G|--XX-14-XX-14-X-14-XX-14-XX-14--|
D|--XX-X--XX-X--X-X--XX-X--XX-X---|
A|--XX-12-XX-12-X-12-XX-12-XX-12--|
D|--------------------------------|


E|--------------------------------|
B|--------------------------------|
G|--XX-7--XX-7--X-7--XX-9--XX-9---|
D|--XX-X--XX-X--X-X--XX-X--XX-X---|
A|--XX-5--XX-5--X-5--XX-7--XX-7---|
D|--------------------------------|


E|--------------------------------|
B|--------------------------------|
G|--XX-11-XX-11-X-11-XX-14-XX-14--|
D|--XX-X--XX-X--X-X--XX-X--XX-X---|
A|--XX-9--XX-9--X-9--XX-12-XX-12--|
D|--------------------------------|

GUITARRA 2
CON PALM MUTED
E|--------------------------------|
B|--------------------------------|
G|--------------------------------|
D|-4---7----0---------------------|
A|-4---7----0---------------------|
D|-4---7----0---------------------|

“No pensé, que me fuera a traicionar.....”
Aquí va lo mismo que lo de arriba, solo que la guitarra 1 las toca una por una las 
por ejemplo:


GUITARRA 1
E|--------------------------------|
B|--------------------------------|
G|----11---11-11------------------|
D|--------------------------------|
A|--9----9-------9----------------|
D|--------------------------------|


GUITARRA 2
CON PALM MUTED
E|--------------------------------|
B|--------------------------------|
G|--------------------------------|
D|-4---7----0---------------------|
A|-4---7----0---------------------|
D|-4---7----0---------------------|

TERMINA EN
GUITARRA 1
E|--------------------------------|
B|--------------------------------|
G|--11~---------------------------|
D|--X~----------------------------|
A|--9~----------------------------|
D|--------------------------------|

GUITARRA 2
E|--------------------------------|
B|--------------------------------|
G|--------------------------------|
D|--4~----------------------------|
A|--4~----------------------------|
D|--4~----------------------------|

OTRA VEZ EL CORO:

“Regrésame me estoy hundiendo.....”

ENTRANLAS DOS GUITARRAS (ustedes busquen los tiempos)
E|--------------------------------|
B|--------------------------------|
G|------6-------------------------|
D|--7---6---0---2-----------------|
A|--7---4---0---2-----------------|
D|--7-------0---2-----------------|

“Regrésame me estoy muriendo.....”

GUITARRA 1
E|--------------------------------|
B|--------------------------------|
G|-11--14---7---9-----------------|
D|-X---X----X---X-----------------|
A|-9---12---5---7-----------------|
D|--------------------------------|


GUITARRA 2
E|--------------------------------|
B|--------------------------------|
G|--------------------------------|
D|-4---7---0---2------------------|
A|-4---7---0---2------------------|
D|-4---7---0---2------------------|

AQUÍ VA PURO BAJO Y BATERIA
Y LAS GUITARRAS ENTRAN HASTA EL MINUTO (1:58)

NOTA: LOS EFECTOS SON MUY DIFICIL DE PRODUCIR
YA KE SON DIFERENTES MODELOS DE GUITARRA
Y AMPLIFICADORES, PERO USTEDES
SEGURO LE METEN ARREGLOS

LAS GUITARRAS ENTRAN MUTEADAS
E|--------------------------------|
B|--------------------------------|
G|--------------------------------|
D|--4----7----0-------------------|
A|--4----7----0-------------------|
D|--4----7----0-------------------|
SOLO:

GUITARRA 1
E|---------------------------------------|
B|-12b14r14r14bh12--12-10---10-------10--|
G|------------------------11---10h11-----|
D|---------------------------------------|
A|---------------------------------------|
D|---------------------------------------| X2


E|--10-9----10-9----10-9----10-9----10-9--|
B|-------10------10------10------10-------|
G|----------------------------------------|
D|----------------------------------------|
A|----------------------------------------|
D|----------------------------------------|


E|---12h9--12h9--12h9--12h9—12h9—12h9—12h9—12b14r14-|
B|-10----10----10----10----10---10---10---10--------|
G|--------------------------------------------------|
D|--------------------------------------------------|
A|--------------------------------------------------|
D|--------------------------------------------------|


GUITARRA 2
E|--------------------------------|
B|--------------------------------|
G|--------------------------------|
D|--4----7----0-------------------|
A|--4----7----0-------------------|
D|--4----7----0-------------------|

FINAL
IGUAL QUE EL CORO

ENTRANLAS DOS GUITARRAS (ustedes busquen los tiempos)
E|--------------------------------|
B|--------------------------------|
G|------6-------------------------|
D|--7---6---0---2-----------------|
A|--7---4---0---2-----------------|
D|--7-------0---2-----------------|

“Regrésame me estoy muriendo.....”

GUITARRA 1
E|--------------------------------|
B|--------------------------------|
G|-11--14---7---9-----------------|
D|-X---X----X---X-----------------|
A|-9---12---5---7-----------------|
D|--------------------------------|


GUITARRA 2
E|--------------------------------|
B|--------------------------------|
G|--------------------------------|
D|-4---7---0---2------------------|
A|-4---7---0---2------------------|
D|-4---7---0---2------------------|


PERO TERMINA HACIENDO UN DESMADRE
CON ESTAS NOTAS

GUITARRA1
E|--------------------------------|
B|--------------------------------|
G|--11-11-9-11-11-----------------|
D|--X--X--X-X--X------------------|
A|--9--9--7-9--9------------------|
D|--------------------------------|

GUITARRA 2
E|--------------------------------|
B|--------------------------------|
G|--------------------------------|
D|--4-4-2-4-4---------------------|
A|--4-4-2-4-4---------------------|
D|--4-4-2-4-4---------------------|

TERMINAN ASI

GUITARRA 1
E|--------------------------------|
B|--------------------------------|
G|--11\---------------------------|
D|--X-\---------------------------|
A|--9-\---------------------------|
D|--------------------------------|

GUITRARRA 2
E|--------------------------------|
B|--------------------------------|
G|--------------------------------|
D|--4\----------------------------|
A|--4\----------------------------|
D|--4\----------------------------|
            
Submit corrections

comments powered by Disqus
↑ Back to top | Delux Tabs for Yo Pense. Lyrics for acoustic guitar and electric guitar. 1 Tablatures and chords are parodies/interpretations of the original songs. You may use it for private study, scholarship, research or language learning purposes only