» » »

Delux, Tristeza Tabs (ver.1)

Artists:  A B C D E F G H I J K L M N O P Q R S T U V W X Y Z # 

Tristeza Tabs (ver.1)

Delux Tabs
 Rating:
4/5 (4 votes)
Tristeza lessons Tabs too difficult? Try these video lessons and learn fast
                Alan


Intro

Se puede tocar con una guitara pero si quieren saquenlo con 2

e|-------------------------------|
B|-------------------------------|
G|-------------------------------|
D|--0-7--7-5-4-5-5h4-0---4-------| x2
A|---------------------2---2-0---|
E|-------------------------------|

e|---------------------------------------------------------|
B|---------------------------------------------------------|
G|---7--9--7---9-9-11---12-12-11---6-7-9-7---10-10-11------|
D|---7--9--7---9-9-11---12-10-11---6-7-9-7---10-10-11------|
A|---5--7--5---7-7-9----10-10-9----4-5-7-5---12-12-10------|
E|---------------------------------------------------------|

e|---------------------------------------------------------|
B|---------------------------------------------------------|
G|---11-11-9---6-6-7--9---12-11-9--777777777777777777-7----|
D|---11-11-9---6-6-7--9---12-11-9--777777777777777777-7----|
A|---9--9--7---4-4-5--7---10-9--7--555555555555555555-5----|
E|--------------------------------P-M****************------|

La guitarra ritmica casi no se oye pero se puede
improvisar asi

Guitarra 1

e|---------------------------------------------------------|
B|---------------------------------------------------------|
G|------77-7777-777-99-999-999-666-------------------------|
D|------77-7777-777-99-999-999-666-------------------------|
A|------55-5555-555-77-777-777-444-------------------------|
E|---P-M**************************-------------------------|

Guitarra 2

e|---------------------------------------------------------|
B|---------------------------------------------------------|
G|--9---11---12--11---14-12-11--6-7-9--7-6-7--12-11--------|
D|---------------------------------------------------------|
A|---------------------------------------------------------|
E|---------------------------------------------------------|

e|---------------------------------------------------------|
B|---------------------------------------------------------|
G|-7-6h7p6-7-6h7p6-7--12-11--14-12-11--6-7-9--7-6-7--12-11-|
D|---------------------------------------------------------|
A|---------------------------------------------------------|
E|---------------------------------------------------------|

Pre-coro

e|---------------------------------------------------------|
B|---------------------------------------------------------|
G|---7-------9-------6-------7-----------------------------|
D|---7-------9-------6-------7-----------------------------|
A|---5-------7-------4-------5-----------------------------|
E|---------------------------------------------------------|

Coro

Aqui una guitarra se mantiene y la otra toca algo asi

e|---------------------------------------------------------|
B|---------------------------------------------------------|
G|---7--7--7--7--9--9--9--9--7--7--7--7--9-x-9-x-9--7------|
D|---7--7--7--7--9--9--9--9--7--7--7--7--9-x-9-x-9--7------|
A|---5--5--5--5--7--7--7--7--5--5--5--5--7-x-7-x-7--5------|
E|---------------------------------------------------------|

Solo

e|---------------------------------------------------------|
B|---------------------------------------------------------|
G|9-7-6-7-6-------6-7-9-7-6-7-6-----------6-7-9-7-6-7-6----|
D|----------5-7-9---------------9-7-5-7-9---------------9-7|
A|---------------------------------------------------------|
E|---------------------------------------------------------|

e|---------------------------------------------------------|
B|---------------------------------------------------------|
G|-7-7-9-9/11-12-11-9-7--6--7------------------------------|
D|---------------------------------------------------------|
A|---------------------------------------------------------|
E|---------------------------------------------------------|

ya despues como que se repite todo, solo que el solo final es
lo mismo dos veces, la entrada es puro palm mute de re y mi
ademas acaba algo asi

e|-7---9---11---12-11-9-7-6-7------------------------------|

Bueno creo que ya esta
            
Submit corrections

comments powered by Disqus
↑ Back to top | Delux Tabs for Tristeza. Lyrics for acoustic guitar and electric guitar. Tablatures and chords are parodies/interpretations of the original songs. You may use it for private study, scholarship, research or language learning purposes only