>
 >
Rezo

Rezo Guitar Tabs

Delux - Rezo chords, tabs, tablatures, lyrics

Guitar lessons | Add/correct | Request | Top 50 tabs Artists:  A B C D E F G H I J K L M N O P Q R S T U V W X Y Z 0-9

Rezo Guitar Tabs – Delux

CD, Sheet music, Poster

Do you like Rezo? Share with your friends now
Tabs
INTRO (Guitarra 1)
e|---------------------------------------------------------|
B|---------------------------------------------------------|
G|---------------------------------------------------------| X2
D|-7-7-7-7-7-7-7-7--3-3-3-3-3-3-3-3--5-5-5-5-5-5-5-5-5-5-5-|
A|-7-7-7-7-7-7-7-7--3-3-3-3-3-3-3-3--5-5-5-5-5-5-5-5-5-5-5-|
E|-5-5-5-5-5-5-5-5--1-1-1-1-1-1-1-1--3-3-3-3-3-3-3-3-3-3-3-|

(Guitarra 2)
e|-----------------------------------------------
B|-----------------------------------------------
G|-12-12-12--10-10-10--9-9-9--10-10-10-10-10-10--
D|--X--X--X---X--X--X--X-X-X---X--X--X--X--X--X--
A|-10-10-10---8--8--8--7-7-7---8--8--8--8--8--8--
E|-----------------------------------------------

e|---------------------------------------|     |-----|
B|---------------------------------------|     |-----|
G|-12-12-12--9-9-9-9--10-10-10-10-10-10--| X2  |--5--| X1
D|--X--X--X--X-X-X-X---X--X--X--X--X--X--|     |--5--|
A|-10-10-10--7-7-7-7---8--8--8--8--8--8--|     |--3--|
E|---------------------------------------|     |-----|

VERSO (Guitarra 1) "Busque La Paz Lei Tu Carta Una Vez Mas..."

  (C)    (Am)   (F)    (G)
e|-0~-----0~-----1~-----3~-|
B|-1~-----1~-----1~-----3~-|
G|-0~-----2~-----2~-----0~-| X2
D|-2~-----2~-----3~-----0~-|
A|-3~-----0~-----3~-----2~-|
E|-3~------------1~-----3~-|


(Guitarra 2) "Quise Luchar Perdi La F Al No Encontrar.."
e|----3--0~------------3--0~--------------------------|
B|-1----------------1----------------6-5-3-5---3~--0~-|
G|----------------------------------------------------| X1
D|----------------------------------------------------|
A|----------------------------------------------------|
E|----------------------------------------------------|

PRE-CORO (Guitarra 1) "El Destino No Miente Enfrentalo..."
e|------------------------------------------------------
B|------------------------------------------------------
G|------------------------------------------------------
D|-3-3--------------------------------------------------
A|-3-3--3-3-3-3-3-3-3-3-3-3-3-3---5-5-5-5-5-5-5-5-5-5-5-
E|-1-1--1-1-1-1-1-1-1-1-1-1-1-1---3-3-3-3-3-3-3-3-3-3-3-
pm      . . . . . . . . . . . .   . . . . . . . . . . .

e|---------------------------------------|
B|---------------------------------------|
G|---------------------------------------| X1
D|-2--2-2-2--2-2-2-2---7-7-7-7-7---5-5-5-|
A|-2--2-2-2--2-2-2-2---7-7-7-7-7---5-5-5-|
E|-0--0-0-0--0-0-0-0---5-5-5-5-5---3-3-3-|

(Guitarra 2)
e|-------15-12-----15-12-----15-12-----15-12-|
B|-15-12-------15--------15--------15--------|
G|-------------------------------------------| X2
D|-------------------------------------------|
A|-------------------------------------------|
E|-------------------------------------------|

e|13-13-13--12-12-12-----------------------------
B|--------------------13-13-13-------------------
G|-----------------------------12-12-12-12-12-12-
D|-----------------------------------------------
A|-----------------------------------------------
E|-----------------------------------------------


e|-13-12-----13-12-----13-12-----13-12-----15-||
B|-------13--------13--------13--------12-----||
G|--------------------------------------------|| X1
D|--------------------------------------------||
A|--------------------------------------------||
E|--------------------------------------------||

CORO (Guitarra 1) "Rezo Para Que No Rezes Mas Por Mi..."
e|--------------------------------------------------------------------|
B|--------------------------------------------------------------------|
G|-5-5-5-5-5-5-5-5----------------------------------------------------|X2
D|-5-5-5-5-5-5-5-5--7-7-7-7-7-7-7-7--3-3-3-3-3-3-3-3--5-5-5-5-5-5-5-5-|
A|-3-3-3-3-3-3-3-3--7-7-7-7-7-7-7-7--3-3-3-3-3-3-3-3--5-5-5-5-5-5-5-5-|
E|------------------5-5-5-5-5-5-5-5--1-1-1-1-1-1-1-1--3-3-3-3-3-3-3-3-|

(Guitarra 2)
e|------------------------------------------------------|
B|------------------------------------------------------|
G|-12-12-12--10-10-10-10--9-9-9-9-9-9-9-9-9-9-9-9-9-9-9-| X3
D|------------------------------------------------------|
A|------------------------------------------------------|
E|------------------------------------------------------|

e|------------------------------------------------------|
B|------------------------------------------------------|
G|-10-10-10--9-9-9-9------------------------------------| X1
D|--------------------12-12-12--10-10-10-10-10-10-10-10~|
A|------------------------------------------------------|
E|------------------------------------------------------|

VERSO (Guitarra 1) "Hoy Te Soe Morias Una Y Otra Ves..."

  (C)    (Am)   (F)    (G)
e|-0~-----0~-----1~-----3~-|
B|-1~-----1~-----1~-----3~-|
G|-0~-----2~-----2~-----0~-| X1
D|-2~-----2~-----3~-----0~-|
A|-3~-----0~-----3~-----2~-|
E|-3~------------1~-----3~-|


(Guitarra 2)
e|----3--0~------------3--0~--------------------------|
B|-1----------------1----------------6-5-3-5---3~--0~-|
G|----------------------------------------------------| X1
D|----------------------------------------------------|
A|----------------------------------------------------|
E|----------------------------------------------------|

Se Repite!
>*(PRE-CORO)*< (Guitarra 1 y 2)

Se Repite!
>*(CORO)*< (Guitarra 1 y 2)

INTERMEDIO
(Guitarra 1)
e|-------------------------------------------------------------------
B|-------------------------------------------------------------------
G|-------------------------------------------------------------------
D|-------------------------------------------------------------------
A|-7-7-7-7-7-7-7--9-9-9-9-9-9-9--10-10-10-10-10-10-10--3-3-3-3-3-3-3-
E|-5-5-5-5-5-5-5--7-7-7-7-7-7-7---8--8--8--8--8--8--8--1-1-1-1-1-1-1-
Pm . . . . . . .  . . . . . . .   .  .  .  .  .  .  .  . . . . . . .

e|-------------------------------------------------------------------|
B|-------------------------------------------------------------------|
G|-------------------------------------------------------------------|X1
D|-------------------------------------------------------------------|
A|-7-7-7-7-7-7-7--9-9-9-9-9-9-9--10-10-10-10-10-10-10-10-10-10-10-10-|
E|-5-5-5-5-5-5-5--7-7-7-7-7-7-7---8--8--8--8--8--8--8--8--8--8--8--8-|
Pm . . . . . . .  . . . . . . .   .  .  .  .  .  .  .  .  .  .  .  .

(Guitarra 1) X1 "Deja Tu Mensaje Que Mi Alma No Se Encuentra"
e|----------------------------------------------------------------------
B|----------------------------------------------------------------------
G|----------------------------------------------------------------------
D|3-3-3/-7----------------7/-9--------------9/-10--------------------10
A|3-3-3/-7--7-7-7-7-7-7-7-7/-9--9-9-9-9-9-9-9/-10--10-10-10-10-10-10-10
E|1-1-1/-5--5-5-5-5-5-5-5-5/-7--7-7-7-7-7-7-7/--8---8--8--8--8--8--8--8
Pm          . . . . . . .       . . . . . .         .  .  .  .  .  .

e|---------------------------------------------------------------------|
B|---------------------------------------------------------------------|
G|---------------------------------------------------------------------|
D|3-----------3/-7-------------7/-9-------------9/-10------------------|
A|3-3-3-3-3-3-3/-7-7-7-7-7-7-7-7/-9-9-9-9-9-9-9-9/-10-10-10-10-10-10-10|
E|1-1-1-1-1-1-1/-5-5-5-5-5-5-5-5/-7-7-7-7-7-7-7-7/--8--8--8--8--8--8--8|
Pm  . . . . .      . . . . . .      . . . . . .     .  .  .  .  .  .  .

(Guitarra 2)
e|-------------------------------------------8~------------------------
B|-6-5---5~---8-6-5-6-5~---6-5---5-----8-6-5-----6-5---5~---8-6-5-6-5~-
G|-----7-----------------------7---7-----------------7-----------------
D|---------------------------------------------------------------------
A|---------------------------------------------------------------------
E|---------------------------------------------------------------------

e|------------8--------|
B|-6-5---5------8-6-5~-|
G|-----7---7-----------| X1
D|---------------------|
A|---------------------|
E|---------------------|

(Guitarra 1) X1 "Deja Deja Dejame El Motivo Se Ha Perdido"
e|---------------------------------------------------------------------
B|---------------------------------------------------------------------
G|---------------------------------------------------------------------
D|3-3-3/-7--7-7-7-7-7-7-7-7/-9--9-9-9-9-9-9-9/-10--10-10-10-10-10-10-10
A|3-3-3/-7--7-7-7-7-7-7-7-7/-9--9-9-9-9-9-9-9/-10--10-10-10-10-10-10-10
E|1-1-1/-5--5-5-5-5-5-5-5-5/-7--7-7-7-7-7-7-7/--8---8--8--8--8--8--8--8


e|---------------------------------------------------------------------|
B|---------------------------------------------------------------------|
G|---------------------------------------------------------------------|
D|3-3-3-3-3-3-3/-7-7-7-7-7-7-7-7/-9-9-9-9-9-9-9-9/-10-10-10-10-10-10-10|
A|3-3-3-3-3-3-3/-7-7-7-7-7-7-7-7/-9-9-9-9-9-9-9-9/-10-10-10-10-10-10-10|
E|1-1-1-1-1-1-1/-5-5-5-5-5-5-5-5/-7-7-7-7-7-7-7-7/--8--8--8--8--8--8--8|

(Guitarra 2)
e|-------------------------------------------------------------------|
B|-8-6-8-6-8-6--5-6-8-6--6-5--5---------8-6-8-6-8-6--5-6-8-6--6-5--5~|
G|------------------------------7-5-7--------------------------------|X1
D|-------------------------------------------------------------------|
A|-------------------------------------------------------------------|
E|-------------------------------------------------------------------|

(Guitarra 1)
e|--------------------------------------|
B|--------------------------------------|
G|-----------------------5-5-5-5-5-5--5-| X2
D|-----------------------X-X-X-X-X-X--X-|
A|-7-7-7--3-3-3--5-5-5---3-3-3-3-3-3--3-|
E|-5-5-5--1-1-1--3-3-3------------------|

Se Repite!
>*(CORO)*< (Guitarra 1 y 2)

FINAL (Guitarra 1)
e|-------------------|
B|-------------------|
G|-------------------| X1
D|-7-7-7--3-3-3--5~~-|
A|-7-7-7--3-3-3--5~~-|
E|-5-5-5--1-1-1--3~~-|

(Guitarra 2)
e|------------------------|
B|------------------------|
G|-12-12-12--10-10-10--5~-| X1
D|--X--X--X--X--X--X---5~-|
A|-10-10-10--8--8--8---3~-|
E|------------------------|





Comments


Popular Delux tabs & chords
Mas De Lo Que Te Imaginas Bass Tabs
Dime Chords
Infatuacion Chords
El Peor Testigo Intro Tabs
Get The Money Tabs
Infatuacion Tabs
Mas De Lo Que Te Imaginas Tabs
Quemando Cartas Tabs
Tristeza Tabs
Entre La Guerra Y El Amor Ukulele


Song lyrics



↑ Back to top | Tablatures and chords are parodies/interpretations of the original songs. You may use it for private study, scholarship, research or language learning purposes only
© 2014 AZChords.com Contact us | Privacy policy | DMCA | Add/correct tabs | Request tabs | Top 50 tabs