>
 >
Regresame Yo Pense

Regresame Yo Pense Guitar Tabs

Delux - Regresame Yo Pense chords, tabs, tablatures, lyrics

Guitar lessons | Add/correct | Request | Top 50 tabs Artists:  A B C D E F G H I J K L M N O P Q R S T U V W X Y Z 0-9

Regresame Yo Pense Guitar Tabs – Delux

CD, Sheet music, Poster

Do you like Regresame Yo Pense? Share with your friends now
Tabs
Yo pensι.                 q esta era mi lugar..
1--------------------|-------------------------------|
2--------------------|-------------------------------|
3--------------------|-------------------------------|
4----5/7-7-7-7-7-----|-7/9-9-9-9-9-------------------| (ambas guitarras)
5----5/7-7-7-7-7-----|-7/9-9-9-9-9-------------------|
6----3/5-5-5-5-5-----|-5/7-7-7-7-7-------------------|

No entiendo el sufrimiento…..

1---------------------------------------------------|
2---------------------------------------------------|
3---------------------------------------------------|
4—2-2-2-2-2-2-2-2-2-2-2-2-2-2-2-2-2-2---------------| (guitarra 1 )
5—2-2-2-2-2-2-2-2-2-2-2-2-2-2-2-2-2-2---------------|
6—0-0-0-0-0-0-0-0-0-0-0-0-0-0-0-0-0-0---------------|

1-------------------------------------------------------|
2-------------------------------------------------------|
3----9------11---------13------------15-----------------|
4----x-------x----------x--------------x----------------| ( guitarra 2 )
5----7-------9---------11-------------13----------------|
6-------------------------------------------------------|

1--------------------|-------------------------------|
2--------------------|-------------------------------|
3--------------------|-------------------------------|
4----5/7-7-7-7-7-----|-7/9-9-9-9-9-------------------| ( guitarra 1 )
5----5/7-7-7-7-7-----|-7/9-9-9-9-9-------------------|
6----3/5-5-5-5-5-----|-5/7-7-7-7-7-------------------|


1--------------------------------------------------|
2--------------------------------------------------|
3—5/7-7-7-7-7---7/9-9-9-9-9-9----------------------|
4—x/x-x-x-x-x---7/x-x-x-x-x-x----------------------| ( guitarra 2 )
5—3/5-5-5-5-5---5/7-7-7-7-7-7----------------------|
6--------------------------------------------------|


1---------------------------------------------------|
2---------------------------------------------------|
3---------------------------------------------------|
4—2-2-2-2-2-2-2-2-2-2-2-2-2-2-2-2-2-2---------------| (guitarra 1 )
5—2-2-2-2-2-2-2-2-2-2-2-2-2-2-2-2-2-2---------------|
6—0-0-0-0-0-0-0-0-0-0-0-0-0-0-0-0-0-0---------------|

1-------------------------------------------------------|
2-------------------------------------------------------|
3----9------11---------13------------15-----------------|
4----x-------x----------x--------------x----------------| ( guitarra 2 )
5----7-------9---------11-------------13----------------|
6-------------------------------------------------------|

1--------------------------------------------------------|
2--------------------------------------------------------|
3--------- (9) ------------------------------------------|
4----------(x) ----dejalo sonaaR-------------------------|
5--------- (7) ------------------------------------------|
6--------------------------------------------------------|

bajeo—

Coro
 Regresame…..
1----------------------------------------------------------------|
2----------------------------------------------------------------|
3----------------------------------------------------------------|
4-2---------6---------11-----------8----------------- ---| 2 vecez
5-2---------6---------11-----------8-----------------------------|
6-0---------4----------9-----------6-----------------------------|

te soρe cn una vida normal----

1--------------------------------------------------------|
2--------------------------------------------------------|
3----9------11---------13------------15------------------|
4----x-------x----------x--------------x-----------------|
5----7-------9---------11-------------13-----------------|
6--------------------------------------------------------|
……..p.m……………..p.m……………………

nO pense que me fuera a traicionar…
1----------------------------------------------------------------------------|
2----------------------------------------------------------------------------|
3----------------------------------------------------------------------------|
4—2------------------6--------------------4---------4--------4-------4-------|
5—2------------------6--------------------4---------4--------4-------4-------|
6—0------------------4--------------------2---------2--------2-------2-------|
………….p.m…………….p.m……………………………………………………….p.m..................pm...........

1-------------------------------------------------------|
2-------------------------------------------------------|
3--------- (9) -----------------------------------------|
4----------(x) -----------------------------------------|
5--------- (7) -----------------------------------------|
6-------------------------------------------------------|


Coro

1----------------------------------------------------------------|
2----------------------------------------------------------------|
3----------------------------------------------------------------|
4-2---------6---------11-----------8----------------- ---| 2 vecez
5-2---------6---------11-----------8-----------------------------|
6-0---------4----------9-----------6-----------------------------|


Bajeo—

1----------------------------------------------------------------------------|
2----------------------------------------------------------------------------|
3----------------------------------------------------------------------------|
4----/////////////////////////////////---------------------------------------|///////////////////-(slides
5-------------------------------/////////////---------------///////////////--|
6---------------------------------------------------//-----------------------|

                  Puenteee --------------------------------------------------|
1----------------------------------------------------------------------------|
2----------------------------------------------------------------------------|
3----------------------------------------------------------------------------|
4—2------------------6--------------------4---------4--------4-------4-------|
5—2------------------6--------------------4---------4--------4-------4-------|
6—0------------------4--------------------2---------2--------2-------2-------|

Solo—

1------------------------------------------------------------------------------|
2—15-15-15-13----------------------15-15-15-13---------------------------------|
3------------15--13--15-13--15—13---^^^^^^^^^^^15--13--15--13--15—13--------4--|
5------------------------------------------------------------------------------|
6------------------------------------------------------------------------------|

1---------------------------------------------------------------------------|
2-17-15-14--17-15-14--17-15-14--17-15-14-17-15-14—17-15-14—17-15------------|
3---------------------------------------------------------------------------|
4---------------------------------------------------------------------------|
5---------------------------------------------------------------------------|
6---------------------------------------------------------------------------|

1----------------------------------------------------------------------------|
2—17-14-17-14-17-14-17-14-17-14-17-14-17-14-17-14—15^--15^-------------------|
3----------------------------------------------------------------------------|
4----------------------------------------------------------------------------|
5----------------------------------------------------------------------------|
6----------------------------------------------------------------------------|


Coro

1----------------------------------------------------------------|
2----------------------------------------------------------------|
3----------------------------------------------------------------|
4-2---------6---------11-----------8----------------- ---| 2 vecez
5-2---------6---------11-----------8-----------------------------|
6-0---------4----------9-----------6-----------------------------|


Outro-

1----------------------------------------------------------------------------|
2----------------------------------------------------------------------------|
3----------------------------------------------------------------------------|
4----------2-----------------------------------------------------------------|
5----------2------- (la guitarra 1 solo toka ese power chord-----------------|
6----------0------- durante el outro)----------------------------------------|

1---------------------------------------------------------------------------|
2---------------------------------------------------------------------------|
3----------------9----------------------------------------------------------|
4----------------x--------(la guitarra 2 toka este)-------------------------|
5----------------7----------------------------------------------------------|
6---------------------------------------------------------------------------|
ai sta la rola a mi parecer esta correctaa si acaso unos detalles en el solo pro lo 
creo que sta 95% bien ……..



RATE it please.…





Comments


Popular Delux tabs & chords
Mas De Lo Que Te Imaginas Bass Tabs
De Mi Enamorate Chords
Dime Chords
Quien Comparte Tu Silencio Chords
Chat Noir 1 Tabs
El Peor Testigo Intro Tabs
Nunca Supiste Tabs
Quien Comparte Tu Silencio 1 Tabs
Yo Pense 1 Tabs
Si Tu Ukulele


Song lyrics



↑ Back to top | Tablatures and chords are parodies/interpretations of the original songs. You may use it for private study, scholarship, research or language learning purposes only
© 2014 AZChords.com Contact us | Privacy policy | DMCA | Add/correct tabs | Request tabs | Top 50 tabs