>
 >
Infatuacion

Infatuacion Guitar Tabs

Delux - Infatuacion chords, tabs, tablatures, lyrics

Guitar lessons | Add/correct | Request | Top 50 tabs Artists:  A B C D E F G H I J K L M N O P Q R S T U V W X Y Z 0-9

Infatuacion Guitar Tabs – Delux

CD, Sheet music, Poster

Do you like Infatuacion? Share with your friends now
Bass TabsChordsTabsUkulele
Intro:
Guitarra 1
1a parte
e|------------------------------------------------------------------------------------------------------|
B|------------------------------------------------------------------------------------------------------|
G|-999-999-999999-9-10-9-3-555-55555-777-77777-101010-1010101010-12121212-10101010-141414-1414141414-12-|
D|-xxx-xxx-xxxxxx-x--x-x-x-xxx-xxxxx-xxx-xxxxx-x x x- x x x x x--x x x x--x x x x--x x x -x x x x x--x--|
A|-777-777-777777-7--8-7-5-333-33333-555-55555-8 8 8- 8 8 8 8 8--10101010-8 8 8 8--121212-1212121212-10-|
E|------------------------------------------------------------------------------------------------------|
Guitarra 1
2a parte
e|----------------------------------------------------------------------------------------------------|
B|----------------------------------------------------------------------------------------------------|
G|-999-999-999999-9-10-9-3-555-55555-777-77777-101010-1010101010-12121212-14141414-161616161616161616-|
D|-xxx-xxx-xxxxxx-x--x-x-x-xxx-xxxxx-xxx-xxxxx-x x x- x x x x x--x x x x--x x x x -x x x x x x x x x--|
A|-777-777-777777-7--8-7-5-333-33333-555-55555-8 8 8- 8 8 8 8 8--10101010-12121212-141414141414141414-|
E|----------------------------------------------------------------------------------------------------|

Intro
Guitarra 2

e|---------------------------------------------------------------------|
B|---------------------------------------------------------------------|
G|---------------------------------------------------------------------|   x 2
D|-555-555-5555-555-5--------------------------------------------------|
A|-333-333-3333-333-3-555-555-5555-555-5-333-333-3333-333-3-555-555-55-|
E|--------------------333-333-3333-333-3-111-111-1111-111-1-333-333-33-|

Guitarra 1
e|----------------------------------------------------------------------------------------------------------------------------|
B|----------------------------------------------------------------------------------------------------------------------------|
G|--------------------------------------------777777-1010101010-1010101010101010101010101010101010-1212121212-12121212121212--|
D|--------------------------------------------xxxxxx-x x x x x -x x x x x x x x x x x-x x x x x x--x x x x x -x x x x x x x --|
A|-------------------------55555-55555555555--555555-8 8 8 8 8 -8 8 8 8 8 8 8 8 8 8 8-8 8 8 8 8 8--1010101010-10101010101010--|
E|-------------------------33333-33333333333----------------------------------------------------------------------------------|

Guitarra 2
e|------------------------------------------------------------------------------------------|
B|------------------------------------------------------------------------------------------|
G|------------------------------------------------------------------------------------------|
D|-55555-55555555555-555555-----------------------------------------------------------------|
A|-33333-33333333333-333333-55555-55555555555-555555-33333-33333333333-333333-55555-5555555-|
E|--------------------------33333-33333333333-333333-11111-11111111111-111111-33333-3333333-|


Si tuviera que contar, las razones por  las cuales te amo...

Guitarra 1

e|----------------------------------------------------------------|
B|----------------------------------------------------------------|
G|------------------------------------------11-11-10-10-----------|
D|-9-10-9-9-10-9-9-10-10-9-9-10-9-9-10-10-9------------12-12-10-9-|
A|----------------------------------------------------------------|
E|----------------------------------------------------------------|
   *  * * *  * * *  *  * * *  * * *  *  * *  *  *  *  * *  *  * *


Guitarra 2

e|---------------------------------------------------|
B|---------------------------------------------------|
G|---------------------------------------------------|
D|-55-5-555-5555-------------------------------------|
A|-33-3-333-3333-55-555-555-33-333-333-55-5-555-5555-|
E|---------------33-333-333-11-111-111-33-3-333-3333-|
   ** * *** **** ** *** *** ** *** *** ** * *** ****

No Podria ni comenzar, pues mi corazón te lo has robado...

e|--------------------------------------------------------------|
B|--------------------------------------------------------------|
G|-----------------------------------------------10-10-11-11-12-|
D|-9-10-9-9-10-9-9-10-10-9-9-10-9-9-10-10-9-12-12---------------|
A|--------------------------------------------------------------|
E|--------------------------------------------------------------|
   *  * * *  * * *  *  * * *  * * *  *  * *  *  * *  *  *  *  *


Guitarra 2
e|---------------------------------------------------|
B|---------------------------------------------------|
G|---------------------------------------------------|
D|-55-5-555-5555-------------------------------------|
A|-33-3-333-3333-55-555-555-33-333-333-55-5-555-5555-|
E|---------------33-333-333-11-111-111-33-3-333-3333-|
   ** * *** **** ** *** *** ** *** *** ** * *** ****

Precoro:

Y es tan dificil de ocultar... mis sentimientos por tí

Guitarra 1

e|----------------------------------------------------|
B|----------------------------------------------------|
G|-1010-101010-10-99-9-1010-10-1212-121212-12-10-99-9-|
D|-1010-101010-10-99-9-1010-10-1212-121212-12-10-99-9-|
A|-8 8 -8 8 8 -8 -77-7-8 8 -8 -1010-101010-10-8 -77-7-|
E|----------------------------------------------------|

e|------------------------------------|
b|------------------------------------|
g|------------------------------------|
d|-55-555-555-555-5-------------------|
a|-33-333-333-333-3-55-555-5-33-333-3-|
E|------------------33-333-3-11-111-1-|

Yo cada dia te quiero mas...


Guitarra 1

e|-----------------------------------------------|
b|-----------------------------------------------|
g|-1010-101010-10-99-9-1010-10-1212-121212-12-12-|
d|-1010-101010-10-99-9-1010-10-1212-121212-12-12-|  Dejando sonar el último acorde
a|-8 8 -8 8 8 -8 -77-7-8 8 -8 -1010-101010-10-10-|
E|-----------------------------------------------|

Guitarra 2

e|----------------------------|
b|----------------------------|
g|----------------------------|
d|-55-555-555-555-5-----------|
a|-33-333-333-333-3-55-555-55-|
E|------------------33-333-33-| Aqui entra el palm mute de inicio del coro


Coro:
Guitarra 2
e|-----|
B|-----|
G|-----|
D|-----|
A|-333-|
E|-111-|
   ***


Las dos guitarras
e|-----------------------------------------------------|
B|-----------------------------------------------------|
G|-----------------------------------------------------|
D|-5-----------2---------------3-------------5-------5-|
A|-3-----------2---------------3-------------5-------3-|
E|-------------0---------------1-------------3---------|

   Como Explicar, esta situación decirte te amo son dañar la relación
   Mi mejor amiga siempre has sido tu este es el motivo del cambio de mi actitud

Guitarra 2
e|----------------------------|
B|----------------------------|
G|----------------------------|      Continua con el Palm Mute de
D|-55555-55555555555-555555-5-|      la primera estrofa
A|-33333-33333333333-333333-3-|
E|----------------------------|
                            Dejando sonar...


   Si tuviera que olvidar... todos los amores que he pasado

Guitarra 1
e|--------------------------------------------------------|
B|--------------------------------------------------------|
G|-5-----------4---5--------10---------9----------------7-|
D|-X-----------x---x--------x----------x----------------x-|
A|-3-----------2---3--------8----------7----------------5-|
E|--------------------------------------------------------|

   Solo basta imaginar...    que estaras tu siempre a mi lado

Guitarra 1

e|----------------------------------------------------------|
b|----------------------------------------------------------|
g|-5------------4---5-------12---------------10-----------9-|
d|-x------------x---x-------x----------------x------------x-|
a|-3------------2---3-------10---------------8------------7-|
E|----------------------------------------------------------|

Durante lo anterior, la segunda guitarra, toca el palm mute del primer verso




Puente

Guitarra 1

e|----------------------------------------------------------|
b|----------------------------------------------------------|
g|-55-55555-44-4-99-99999-1010-1010101010-1212-1212121212-5-|
d|-xx-xxxxx-xx-x-xx-xxxxx-x x -x x x x x -x x -x x x x x -5-|
a|-33-33333-22-2-77-77777-8 8 -8 8 8 8 8 -1010-1010101010-3-|
E|----------------------------------------------------------|


Guitarra 2

e|---------------------------------------|
b|---------------------------------------|
g|-55-55555----------------------------5-|
d|-55-55555----------------------------5-|
a|-33-33333-22-22222-33-33333-55-55555-3-|
E|----------00-00000-11-11111-33-33333---|




Interlude

Guitarra 1

e|----------------------------------|         e|-------------------------------------------------------------------|
b|----------------------------------|         b|-------------------------------------------------------------------|
g|----------------------------------|         g|-------------------------------------------------------------------|
d|-12-12-10-10-12-12-12-10-10-12-10-|  x 3    d|-999-99-10-10-9-10-10-9----10-9----10-9-12-12-12-12-12-12-12-12-12-|
a|----------------------------------|         a|------------------------10------10---------------------------------|
E|----------------------------------|         E|-------------------------------------------------------------------|


Guitarra 2

e|-----------------------------|              e|------------------------------------------------------|
b|-----------------------------|              b|------------------------------------------------------|
g|------------9----------------|              g|------------------------------------------------------|
d|--------10---10----10--10----|  x 2         d|------------------------------------------------------|
a|------10--10-----10--10---10-|              a|-------------------------3-333-33-333----5-555-55-555-|
E|-----------------------------|              E|-------------------------1-111-11-111----3-333-33-333-|


Guitarra 1

e|-------------------------------------------|
b|-------------------------------------------|
g|-10-101010-1010-101010-1212-1212-1212-1212-|
d|-10-101010-1010-101010-1212-1212-1212-1212-|
a|-8 -8 8 8 -8 8 -8 8 8 -1010-1010-1010-1010-|
E|-------------------------------------------|

Guitarra 2


e|-------------------------------------------|
b|-------------------------------------------|
g|-------------------------------------------|
d|-------------------------------------------|
a|-3 -3 3 3 -3 3 -3 3 3  -5 5 -5 5 -5 5 -5 5-|
E|-1 -1 1 1 -1 1 -1 1 1  -3 3 -3 3 -3 3 -3 3-|

Coro final


Guitarra 1

e|---------------------------------------------------------------------|
b|---------------------------------------------------------------------|
g|---------------------------------------------------------------------|
d|-5-555-55-555-9-999-99-999-10-101010-1010-101010-1212-1212-1212-1212-|
a|-3-333-33-333-7-777-77-777-8 -8 8 8 -8 8 -8 8 8 -1010-1010-1010-1010-|  X 2
E|---------------------------------------------------------------------|


Guitarra 2

e|---------------------------------------------------------------------------------------------------------------|
b|---------------------------------------------------------------------------------------------------------------|
g|-5-555-55-555--------------------------------------------5-555-55-555----------------------------------------5-|
d|-5-555-55-555-2-222-22-222-3-333-33-333-5-555-55-33-333--5-555-55-555--2-222-22-222-3-333-33-333-55-55-------5-| Dejando sonar

el último acorde
E|--------------0-000-00-000-1-111-11-111-3-333-33-11-111----------------0-000-00-000-1-111-11-111-33-33-11-11---|





Comments


Popular Delux tabs & chords
Dime Chords
Entre La Guerra Y El Amor Chords
Quien Comparte Tu Silencio Chords
Abre Los Ojos Tabs
Chat Noir 1 Tabs
Dejalos Bailar Tabs
Regresame Yo Pense Tabs
Rezo Tabs
Entre La Guerra Y El Amor Ukulele
Infatuacion Ukulele


Song lyrics



↑ Back to top | Tablatures and chords are parodies/interpretations of the original songs. You may use it for private study, scholarship, research or language learning purposes only
© 2014 AZChords.com Contact us | Privacy policy | DMCA | Add/correct tabs | Request tabs | Top 50 tabs