» » »

Get The Money Tabs (ver.1)

Artists:  A B C D E F G H I J K L M N O P Q R S T U V W X Y Z # 

Get The Money Tabs (ver.1)

Delux
Rating:
0/5 (0 votes)

Hard to play? Try these video lessons and learn fast.
                

half-step down
afinacion medio todo abajo
Eb Ab Db Gb Bb Eb
duda o comentarios-> @suckak en twitter

-------------|---------------------------------------------------------------|
-------------|---------------------------------------------------------------|
-------------|-7-7-7-7-7-7-14-14-14-14-14-14-11-11-11-11-11-11-9-9-9-9-9\11--|
-5-5-5-5-5-4-|-x-x-x-x-x-x-x--x--x--x--x--x--x--x--x--x--x--x--x-x-x-x-x\x---|
-5-5-5-5-5-4-|-5-5-5-5-5-5-12-12-12-12-12-12-9--9--9--9--9--9--7-7-7-7-7\9---|
-3-3-3-3-3-2-|---------------------------------------------------------------|


-------------------------------------------|---------------------------------|
-------------------------------------------|---------------------------------|
---7-7-7-7-7-7-7-7-9-7-7-7-7-7-9-7-7-7-9-7-|-----7---------------------------|
---x-x-x-x-x-x-x-x-x-x-x-x-x-x-x-x-x-x-x-x-|-x2--x---------------------------|
---5-5-5-5-5-5-5-5\7/5-5-5-5-5\7/5-5-5\7/5-|-----5---------------------------|
-------------------------------------------|---------------------------------|


-----------------------------------------------------------------------------|
-----------------------------------------------------------------------------|
--------\11-9----9-11-9------------------------------------------------------|
--------------12--------12-9-------------------------------------------------|
-----------------------------------------------------------------------------|
-----------------------------------------------------------------------------|


-----------------------------------------------------------------------------|
-----------------------------------------------------------------------------|
----11-9-11---11-9-11---11-9-11----------------------------------------------|
--9---------9---------12--------9-11-12-11-9-11-12-11-9-11-12-11--9-11-12-14-|
-----------------------------------------------------------------------------|
-----------------------------------------------------------------------------|


-|---------------------------------------------------------------------------|
-|---------------------------------------------------------------------------|
-|---------------------------------------------------------------------------|
-|-5--5-5-5-5-5-5-5-5-5-5-5-5--2--2-2-2-2-2-2-2-2-2-2-2-2--4--4-4-4-4-4-4-4--|
-|-5--5-5-5-5-5-5-5-5-5-5-5-5--2--2-2-2-2-2-2-2-2-2-2-2-2--4--4-4-4-4-4-4-4--|
-|-3--3-3-3-3-3-3-3-3-3-3-3-3--0--0-0-0-0-0-0-0-0-0-0-0-0--2--2-2-2-2-2-2-2--|
      ----------PM-----------     ----------PM-----------     ----------PM---|

-----------------------------------|------------------------------------------|
-----------------------------------|------------------------------------------|
-----------------------------------|------------------------------------------|
-4-4-4--7--7-7-7-7-7-7-7-7-7-7-7-7-|-x2---------------------------------------|
-4-4-4--7--7-7-7-7-7-7-7-7-7-7-7-7-|------------------------------------------|
-2-2-2--5--5-5-5-5-5-5-5-5-5-5-5-5-|------------------------------------------|
 -----     ----------PM-------------------------------------------------------|

-----------------------------------------------------------------------------|
-----------------------------------------------------------------------------|
--4-4-4-4-4-4-4-4-7-7-7-7-7-7-7-7---------------------------------4-4-4-4-4--|
--4-4-4-4-4-4-4-4-7-7-7-7-7-7-7-7-5-5-5-5-5-5-5-5-7-7-7-7-7-7-7-7-4-4-4-4-4--|
--2-2-2-2-2-2-2-2-5-5-5-5-5-5-5-5-5-5-5-5-5-5-5-5-7-7-7-7-7-7-7-7-2-2-2-2-2--|
----------------------------------3-3-3-3-3-3-3-3-5-5-5-5-5-5-5-5------------|


-----------------------------------------------------------------------------|
-----------------------------------------------------------------------------|
-4-4-7-7-7-7-7-7-7-7---------------------------------------------------------|
-4-4-7-7-7-7-7-7-7-7-5-5-5-5-5-5-5-5-4-4-4-4-4-4-4-4-------------------------|
-2-2-5-5-5-5-5-5-5-5-5-5-5-5-5-5-5-5-4-4-4-4-4-4-4-4-------------------------|
---------------------3-3-3-3-3-3-3-3-2-2-2-2-2-2-2-2-------------------------|



-----------------------------------------------------------------------------|
-----------------------------------------------------------------------------|
--------\11-9----9-11-9------------------------------------------------------|
--------------12--------12-9-------------------------------------------------|
-----------------------------------------------------------------------------|
-----------------------------------------------------------------------------|


-----------------------------------------------------------------------------|
-----------------------------------------------------------------------------|
----11-9-11---11-9-11---11-9-11----------------------------------------------|
--9---------9---------12--------9-11-12-11-9-11-12-11-9-11-12-11--9-11-12-14-|
-----------------------------------------------------------------------------|
-----------------------------------------------------------------------------|


-|---------------------------------------------------------------------------|
-|---------------------------------------------------------------------------|
-|---------------------------------------------------------------------------|
-|-5--5-5-5-5-5-5-5-5-5-5-5-5--2--2-2-2-2-2-2-2-2-2-2-2-2--4--4-4-4-4-4-4-4--|
-|-5--5-5-5-5-5-5-5-5-5-5-5-5--2--2-2-2-2-2-2-2-2-2-2-2-2--4--4-4-4-4-4-4-4--|
-|-3--3-3-3-3-3-3-3-3-3-3-3-3--0--0-0-0-0-0-0-0-0-0-0-0-0--2--2-2-2-2-2-2-2--|
      ----------PM-----------     ----------PM-----------     ----------PM---|

-----------------------------------|------------------------------------------|
-----------------------------------|------------------------------------------|
-----------------------------------|------------------------------------------|
-4-4-4--7--7-7-7-7-7-7-7-7-7-7-7-7-|-x2---------------------------------------|
-4-4-4--7--7-7-7-7-7-7-7-7-7-7-7-7-|------------------------------------------|
-2-2-2--5--5-5-5-5-5-5-5-5-5-5-5-5-|------------------------------------------|
 -----     ----------PM-------------------------------------------------------|

------------------------------------------------------------------------------|
------------------------------------------------------------------------------|
4-4-4-4-4-4-4-4-4-7-7-7-7-7-7-7-7---------------------------------4-4-4-4-4---|
4-4-4-4-4-4-4-4-4-7-7-7-7-7-7-7-7-5-5-5-5-5-5-5-5-7-7-7-7-7-7-7-7-4-4-4-4-4---|
2-2-2-2-2-2-2-2-2-5-5-5-5-5-5-5-5-5-5-5-5-5-5-5-5-7-7-7-7-7-7-7-7-2-2-2-2-2---|
----------------------------------3-3-3-3-3-3-3-3-5-5-5-5-5-5-5-5-------------|


-----------------------------------------------------------------------------|
-----------------------------------------------------------------------------|
-4-4-7-7-7-7-7-7-7-7---------------------------------------------------------|
-4-4-7-7-7-7-7-7-7-7-5-5-5-5-5-5-5-5-4-4-4-4-4-4-4-4-------------------------|
-2-2-5-5-5-5-5-5-5-5-5-5-5-5-5-5-5-5-4-4-4-4-4-4-4-4-------------------------|
---------------------3-3-3-3-3-3-3-3-2-2-2-2-2-2-2-2-------------------------|

-----------------------------------------------------------------------------|
-----------------------------------------------------------------------------|
--4-4-4-4-4-4-4-4-4-4-4-4-4-4-----4-4-4-4-4-4-4-4-4-4-4-4-4-4-----4-4-4-4-4--|
--4-4-4-4-4-4-4-4-4-4-4-4-4-4-5-7-4-4-4-4-4-4-4-4-4-4-4-4-4-4-5-7-4-4-4-4-4--|
--2-2-2-2-2-2-2-2-2-2-2-2-2-2-5-7-2-2-2-2-2-2-2-2-2-2-2-2-2-2-5-7-2-2-2-2-2--|
-----------------------------3-5-----------------------------3-5-------------|


-----------------------------------------------------------------------------|
-----------------------------------------------------------------------------|
-4-4-4-4-4-4-4-4-4-----4-4-4-4-4-4-4-4-4-4-----------------------------------|
-4-4-4-4-4-4-4-4-4-5-7-4-4-4-4-4-4-4-4-4-4-5-7-------------------------------|
-2-2-2-2-2-2-2-2-2-5-7-2-2-2-2-2-2-2-2-2-2-5-7-------------------------------|
-------------------3-5---------------------3-5-------------------------------|

----------------|---------------------------------------------|--------------|
----------------|-7---\7------7---\7-----7---\7-----7----12---|--------------|
----------------|-9b11---9-7--9b11---9-7-9b11---9-7-9b11-14b16|--------------|
----------------|---------------------------------------------|--------------|
----------------|---------------------------------------------|--------------|
----------------|---------------------------------------------|--------------|
            
Hard to play? Try these video lessons and learn fast. | Correct




comments powered by Disqus
↑ Back to top | Tablatures and chords are parodies/interpretations of the original songs. You may use it for private study, scholarship, research or language learning purposes only