>
 >
Entre La Guerra Y El Amor

Entre La Guerra Y El Amor Bass Tabs

Delux - Entre La Guerra Y El Amor chords, tabs, tablatures, lyrics

Guitar lessons | Add/correct | Request | Top 50 tabs Artists:  A B C D E F G H I J K L M N O P Q R S T U V W X Y Z 0-9

Entre La Guerra Y El Amor Bass Tabs – Delux

CD, Sheet music, Poster

Do you like Entre La Guerra Y El Amor? Share with your friends now
Bass TabsChordsTabsUkulele
Entre la Guerra y el amor Delux
(Tablatura Bajo)
                                                                         
0:00                                                       0:07          
G|----------------------------------------------------------------------|
D|----------------------------------------------------------------------|
A|-----5-5-5-5-5-5-5-5-5-5-5-5-----7-7-7-7-7-7-7-7-7-7-7-7-5-5--5-------|
E|-0-2-------------------------0-2--------------------------------5-5-5-|
                                                                         
               0:12                     0:17                             
G|----------------------------------------------------------------------|
D|----------------------------------------------------------------------|
A|-------------5-55--------------------5-5-5-5-5-----------------------|
E|-2-2-2-0-0-0--------5-5-5-2-2-2-0-0-0------------5-5-5-5-5-2-2-2-2-2-0|
                                                                         
           0:22                                     0:27                 
G|----------------------------------------------------------------------|
D|----------------------------------------------------------------------|
A|---------5-5-5-5-5--------------------------------5-5-5-5-5-----------|
E|-0-0-0-0------------5-5-5-5-5-2-2-2-2-2-0-0-0-0-0-----------0-0-0-0-0-|
                                                                         
                       0:33                                    0:39      
G|----------------------------------------------------------------------|
D|----------------------------------------------------------------------|
A|---------------------5-5-5-5-5-------------------------------5-5-5-5-5|
E|-2-2-2-2-2-5-5-5-5-5-----------0-0-0-0-0-2-2-2-2-2-5-5-5-5-5----------|
                                                                         
                                 0:45                                    
G|----------------------------------------------------------------------|
D|----------------------------------------------------------------------|
A|-------------------------------5-5-5-5-5------------------------------|
E|-5-5-5-5-5-2-2-2-2-2-0-0-0-0-0-----------0-0-0-0-0-2-2-2-2-2-5-5-5-5-5|
                                                                         
   0:50                                                    0:55          
G|----------------------------------------------------------------------|
D|----------------------------------------------------------------------|
A|-----5-5-5-5-5-5-5-5-5-5-5-5-----7-7-7-7-7-7-7-7-7-7-7-7-5-5--5-------|
E|-0-2-------------------------0-2--------------------------------5-5-5-|
                                                                         
               1:00                     1:06                             
G|----------------------------------------------------------------------|
D|----------------------------------------------------------------------|
A|-------------5-5-5--------------------5-5-5-5-5-----------------------|
E|-2-2-2-0-0-0--------5-5-5-2-2-2-0-0-0------------5-5-5-5-5-2-2-2-2-2-0|
                                                                         
           1:11                                     1:17                 
G|----------------------------------------------------------------------|
D|----------------------------------------------------------------------|
A|---------5-5-5-5-5--------------------------------5-5-5-5-5-----------|
E|-0-0-0-0------------5-5-5-5-5-2-2-2-2-2-0-0-0-0-0-----------0-0-0-0-0-|





                       1:22                                    1:27      
G|----------------------------------------------------------------------|
D|----------------------------------------------------------------------|
A|---------------------5-5-5-5-5-------------------------------5-5-5-5-5|
E|-2-2-2-2-2-5-5-5-5-5-----------0-0-0-0-0-2-2-2-2-2-5-5-5-5-5----------|
                                                                         
                                 1:32                                    
G|----------------------------------------------------------------------|
D|----------------------------------------------------------------------|
A|-------------------------------5-5-5-5-5------------------------------|
E|-5-5-5-5-5-2-2-2-2-2-0-0-0-0-0-----------0-0-0-0-0-2-2-2-2-2-5-5-5-5-5|
                                                                         
   1:38                               1:48                               
G|----------------------------------------------------------------------|
D|----------------------------------------------------------------------|
A|-5----------------5------------------5----------------5---------------|
E|----------0-----------------2-----5-----------0-----------------2-----|
                                                                         
     2:00                                                                
G|----------------------------------------------------------------------|
D|----------------------------------------------------------------------|
A|-5-9-9-9-9-9-9-9-9-11-11-11-11-11-11-11-11-12-12-12-12-12-12-12-12-11-|
E|----------------------------------------------------------------------|
                                                                         
                 2:11                                                    
G|----------------------------------------------------------------------|
D|----------------------------------------------------------------------|
A|-11-11-11-11----------------------------------------------------------|
E|---------------2-2-2-2-2-2-2-2-4-4-4-4-4-4-4-4-9-9-9-9-9-12-12-12-12--|
                                                                         
      2:22                                    2:27                       
G|----------------------------------------------------------------------|
D|----------------------------------------------------------------------|
A|----5-5-5-5-5-------------------------------5-5-5-5-5-----------------|
E|-10-----------0-0-0-0-0-2-2-2-2-2-5-5-5-5-5-----------0-0-0-0-0-2-2-2-|
                                                                         
                 2:32                                    2:37            
G|----------------------------------------------------------------------|
D|----------------------------------------------------------------------|
A|---------------5-5-5-5-5-------------------------------5-5-5-5-5------|
E|-2-2-5-5-5-5-5-----------0-0-0-0-0-2-2-2-2-2-5-5-5-5-5-----------0-0-0|
                                                                         
                           2:43                                    2:49  
G|----------------------------------------------------------------------|
D|----------------------------------------------------------------------|
A|-------------------------5-5-5-5-5-------------------------------5-5-5|
E|-0-0-2-2-2-2-2-5-5-5-5-5-----------0-0-0-0-0-2-2-2-2-2-5-5-5-5-5------|
                                                                         
                                     2:53                                
G|----------------------------------------------------------------------|
D|----------------------------------------------------------------------|
A|-5-5-------------------------------5-5-5-5-5--------------------------|
E|-----0-0-0-0-0-2-2-2-2-2-5-5-5-5-5-----------0-0-0-0-0-2-2-2-2-2-5-5-5|




       2:58                                    3:04                      
G|----------------------------------------------------------------------|
D|----------------------------------------------------------------------|
A|-----5-5-5-5-5-----------------------------------5-5-5-5-5-5-5-5-5-5-5|
E|-5-5-----------0-0-0-0-0-2-2-2-2-2-5-5-5-5-5-0-2----------------------|
                                                                         
                                 3:14                                    
G|----------------------------------------------------------------------|
D|----------------------------------------------------------------------|
A|-5-----7-7-7-7-7-7-7-7-7-7-7-7----------------------------------------|
E|---0-2----------------------------------------------------------------|

                                  Fin

Soy inicial en bajo saque la tablatura de otra pagina pero la modifique espero les sirva.
Les dejo la pagina del tab original.





Comments


Popular Delux tabs & chords
Mas De Lo Que Te Imaginas Bass Tabs
Si Tu Chords
Abre Los Ojos Tabs
El Peor Testigo Tabs
Infatuacion Tabs
Nunca Supiste Tabs
Quien Comparte Tu Silencio 1 Tabs
Rezo Tabs
Tristeza Tabs
De Mi Enamorate Ukulele


Song lyrics



↑ Back to top | Tablatures and chords are parodies/interpretations of the original songs. You may use it for private study, scholarship, research or language learning purposes only
© 2014 AZChords.com Contact us | Privacy policy | DMCA | Add/correct tabs | Request tabs | Top 50 tabs