» » »

Delux, El Peor Testigo Tabs (ver.1)

Artists:  A B C D E F G H I J K L M N O P Q R S T U V W X Y Z # 

El Peor Testigo Tabs (ver.1)

Delux Tabs
 Rating:
4/5 (4 votes)
El Peor Testigo lessons Tabs too difficult? Try these video lessons and learn fast
1
                
Intro (Riff 1) : Guitarra 1 (00:00)

|----------------------------|
|----------------------------|
|-5------------------555-----|
|-5-777-5-333-3-5-77-555-555-| (x3)
|-3-777-5-333-1-5-77-333-555-|
|---555-3-111-1-3-55-----333-|

|----------|
|----------|
|-55555555-|
|-xxxxxxxx-|
|-33333333-|
|----------|

Cont: Guitarra 1 (00:17) (No Se Que Puedo Hacer…)

|-------------------------------------|
|-------------------------------------|
|-55555555----------------------------|
|-55555555-77777777-55555555-33333333-|
|-33333333-77777777-55555555-33333333-|
|----------55555555-33333333-11111111-|

Verso: Bajo (00:28) (Creo Que Si No Estoy...)

Verso: Guitarra 1 (00:38) (Duermo Sentado...)

Riff 2: Guitarra 1 (00:48)

Verso: Bajo (00:54) (Estos Ojos...)

Verso: Guitarra 1: (Son Ya 6 Años...)

Riff 2 (X2): Guitarra 1 (01:14) 

 
|----------|
|----------|
|-55555555-|
|-xxxxxxxx-|
|-33333333-|
|----------|

Coro :Guitarrra 1 (01:27) (No Se Que Puedo Hacer...)

|-------------------------------------|
|-------------------------------------|
|-55555555----------------------------|
|-55555555-77777777-55555555-33333333-| (x2)
|-33333333-77777777-55555555-33333333-|
|----------55555555-33333333-11111111-|

Main Riff: Guitarra 1 (01:48)

|----------------------------|
|----------------------------|
|-5------------------555-----|
|-5-777-5-333-3-5-77-555-555-| (x2)
|-3-777-5-333-1-5-77-333-555-|
|---555-3-111-1-3-55-----333-|





Solo (01:58-02:18)


Yo Tomaria...    Para Que Tu Anhelaras...

|----|           |-----|
|----|           |-----|
|-5*-|           |-----|
|-5*-|           |-5*--|
|-3*-|           |-5*--|
|----|           |-3*--|

Lo Que En...    Hoy Es Diferente...    Y Puedas...

|----|           |-----|                   |----|
|----|           |-----|                   |----|
|-5*-|           |-----|                   |-5*-|
|-5*-|           |-5*--|                   |-5*-|
|-3*-|           |-5*--|                   |-3*-|
|----|           |-3*--|                   |----|

Yo Te Diera...   Para Que...

|-----|          |-----|
|-----|          |-----|
|-55--|          |-----|
|-55--|          |-5*--|
|-33--|          |-5*--|
|-----|          |-3*--|

Por Solo...      Vivas En Mi... 

|-----|          |-----|
|-----|          |-----|
|-55--|          |-----|
|-55--|          |-5*--|
|-33--|          |-5*--|
|-----|          |-3*--|


Y Me Puedas Comprender...

|--------------------|
|--------------------|
|-55555555-----------|
|-XXXXXXXX-----------|
|-33333333-----------|
|----------SLIDE>>>--|


Riff 2 (X2): Guitarra 1 (02:19)

Coro: Guitarra 1 (2:30)

|----------|
|----------|
|-55555555-|
|-xxxxxxxx-|
|-33333333-|
|----------|

Coro :Guitarrra 1) (2:30) (No Se Que Puedo Hacer...)

|-------------------------------------|
|-------------------------------------|
|-55555555----------------------------|
|-55555555-77777777-55555555-33333333-| (x2)
|-33333333-77777777-55555555-33333333-|
|----------55555555-33333333-11111111-|
            
Submit corrections

comments powered by Disqus
↑ Back to top | Delux Tabs for El Peor Testigo. Lyrics for acoustic guitar and electric guitar. 1 Tablatures and chords are parodies/interpretations of the original songs. You may use it for private study, scholarship, research or language learning purposes only