» » »

Dime Tabs (ver.1)

Artists:  A B C D E F G H I J K L M N O P Q R S T U V W X Y Z # 

Dime Tabs (ver.1)

Delux
Rating:
3/5 (1 vote)
Tabs too difficult? Try these video lessons and learn fast.
                aki les djo es ta rolaa weiiss ta bn perra
ojala qe les gustee


VERSO 1 (GTR 1 Y 2)
e|--------------------------------------------|
B|--------------------------------------------|
G|-8-8-8-8----------------8-8-8-8-------------|
D|-8-8-8-8-8-8-5-5-5-5-5--8-8-8-8-8-8-3-3-3-3-|
A|-6-6-6-6-8-8-5-5-5-5-5--6-6-6-6-8-8-3-3-3-3-|
E|---------6-6-3-3-3-3-3----------6-6-1-1-1-1-|
PM . . . . . . . . . . .  . . . . . . . . . .

VERSO 2 (GTR1)
e|--------------------------------------------|
B|--------------------------------------------|
G|-8-8-8-8----------------8-8-8-8-------------|
D|-8-8-8-8-8-8-5-5-5-5-5--8-8-8-8-8-8-3-3-3-3-|
A|-6-6-6-6-8-8-5-5-5-5-5--6-6-6-6-8-8-3-3-3-3-|
E|---------6-6-3-3-3-3-3----------6-6-1-1-1-1-|

CORO (GTR 1 Y 2)
e|-------------------------------------------------|
B|-------------------------------------------------|
G|-8--8-8------------------------------------------|
D|-8--8-8-8--8-8-8-8-8-8-8-5--5-5-3--3-3-3-3-3-3-3-|
A|-6--6-6-8--8-8-8-8-8-8-8-5--5-5-3--3-3-3-3-3-3-3-|
E|--------6--6-6-6-6-6-6-6-3--3-3-1--1-1-1-1-1-1-1-|

e|-------------------------------------------------|
B|-------------------------------------------------|
G|-8--8-8------------------------------------------|
D|-8--8-8-8--8-8-8-8-8-8-8-3--3-3-3--3-3-3-3-3-3-3-|
A|-6--6-6-8--8-8-8-8-8-8-8-3--3-3-3--3-3-3-3-3-3-3-|
E|--------6--6-6-6-6-6-6-6-1--1-1-1--1-1-1-1-1-1-1-|

(VERSO1)

(VERSO 2)

(CORO)

SOLO (GTR 2)
e|-------------------------|
B|-------------------------|
G|-8-8--8-8-10-10-10-10-10-|
D|-X-X--X-X-X--X--X--X--X--|  X4
A|-6-6--6-6-8--8--8--8--8--|
E|-------------------------|

ALA SEGUNDA VES LA GTR 1 ENTRA ASIENDO LO D FONDO
e|-----------------------------------------------------------------|
B|-----------------------------------------------------------------|
G|-8-8-8-8-8-8-8-8-------------------------------------------------|
D|-8-8-8-8-8-8-8-8-8-8-8-8-8-8-8-8-5-5-5-5-5-5-5-5-3-3-3-3-3-3-3-3-|
A|-6-6-6-6-6-6-6-6-8-8-8-8-8-8-8-8-5-5-5-5-5-5-5-5-3-3-3-3-3-3-3-3-|
E|-----------------6-6-6-6-6-6-6-6-3-3-3-3-3-3-3-3-1-1-1-1-1-1-1-1-|
PM . . . . . . . . . . . . . . . . . . . . . . . . . . . . . . . .

(GTR 2)
e|-----------------|
B|-----------------|
G|-7-5-3-5-7-5-3-5-|
D|-----------------|
A|-----------------|
E|-----------------|

(GTR 2 )
e|-------------------------|
B|-------------------------|
G|-8-8--8-8-10-10-10-10-10-|
D|-X-X--X-X-X--X--X--X--X--|  X4
A|-6-6--6-6-8--8--8--8--8--|
E|-------------------------|

(GTR 2)
e|----------------|
B|----------------|
G|-8~-------------|
D|-8~----8~----3~-|
A|-6~----8~----3~-|
E|-------6~----1~-|

(CORO)

VERSO FINAL (GTR 1 Y 2)
e|-----------------------------------------------------------------|
B|-----------------------------------------------------------------|
G|-8-8-8-8-------------------------8-8-8-8-------------------------|
D|-8-8-8-8-8-8-8-8-5-5-5-5-3-3-3-3-8-8-8-8-8-8-8-8-3-3-3-3-3-3-3-3-|
A|-6-6-6-6-8-8-8-8-5-5-5-5-3-3-3-3-6-6-6-6-8-8-8-8-3-3-3-3-3-3-3-3-|
E|---------6-6-6-6-3-3-3-3-1-1-1-1---------6-6-6-6-1-1-1-1-1-1-1-1-|

saludos alos pleves del sinaloaaa en espesial alos d 3f i 3e wooooooooo
diganle al omar qe le gusta al lapiz jijijijiji
            
Tabs too difficult? Try these video lessons and learn fast.


comments powered by Disqus
↑ Back to top | Tablatures and chords are parodies/interpretations of the original songs. You may use it for private study, scholarship, research or language learning purposes only