» » »

When In Roam Tabs (ver.1)

Artists:  A B C D E F G H I J K L M N O P Q R S T U V W X Y Z # 

When In Roam Tabs (ver.1)

Delta Spirit
Rating:
0/5 (0 votes)

Tabs too difficult? Try these video lessons and learn fast.
                -------------------------------------------------------------------------------
			     WHEN IN ROAM – Delta Spirit
-------------------------------------------------------------------------------

Tuning: Drop D


Verse
						2 Times
e|------------------------------------------------------|
B|------4-----4-----4--------------4-----4-----4--------|
G|------5-----6-----5--------------5-----6-----5--------|
D|---6-----6-----6--------------6------6-----6----------|
A|------------------------------------------------------|
D|------------------------------------------------------|

e|------4------4-----4-------------4-----4------4-------|
B|------6------7-----6-------------6-----7------6-------|
G|---6------6-----6-------------6------6-----6----------|
D|------------------------------------------------------|
A|------------------------------------------------------|
D|------------------------------------------------------|

e|------------------------------------------------------|
B|------4-----4------4----------------------------------|
G|------5-----6------5-------------3-----3-----3--------|
D|---6-----6------6----------------5-----6-----5--------|
A|------------------------------6------6-----6----------|
D|------------------------------------------------------|

e|-----------------------------------------------------------------|
B|------4-----4-----4--------------4-----4-----4-------------------|
G|------5-----6-----5--------------5-----6-----5-------------------|
D|---6-----6-----6--------------6------6-----6----------6----5---3-|
A|-----------------------------------------------------------------|
D|-----------------------------------------------------------------|


Chorus - the () notes I don't really play but if you want more bottom end go for it...

e|--1----1---1---------------------------------8-----8----8-----|
B|--1----1---1-----3----3---3----8----8---8----8-----8----8-----|
G|--2----2---2-----3----3---3----8----8---8----8-----8----8-----|
D|--3----3---3-----3----3---3----8----8---8----10----10---10----|
A|--3----3---3-----1----1---1----6----6---6----10----10---10----|
D|-(3)—-(3)-(3)-------------------------------(10)-—(10)-(10)---|

e|--1----1---1--------------------------------------------------|
B|--1----1---1--------3-----------------------------------------|
G|--2----2---2--------3-----------------------------------------|
D|--3----3---3--------3---------------------------3--3-1--------|
A|--3----3---3--------1-----------------1--4--------------4-1---|
D|-(3)—-(3)-(3)-------------------1-1---------------------------|

e|------------------------------------------------------------------|
B|---------------------------------------------4-----4-----4--------|
G|--/8-8-8-8-8-8-8-/8-8-8-8-8-8----------------5-----6-----5--------|
D|------------------------------------------6------6-----6----------|
A|------------------------------------------------------------------|
D|------------------------------------------------------------------|

Repeat the Verse and Chorus and then this time the guitar fill is


e|-----------------------------------|
B|-----------------------------------|
G|----/6---6b---6--------------------|
D|----------------8-6-4--------------|
A|-----------------------------------|
D|-----------------------------------|


Repeat the Verse and Chorus again, then there’s a guitar solo with this lick in the 
that is played by both guitar and bass

e|---------------------------------------------------------------------------|
B|---------------------------------------------------------------------------|
G|---------------------------------------------------------------------------|
D|--------------3--3-1------------------------3--3-1-------------------------|
A|------1--4------------4-1-----------1--4------------4-1--------------------|
D|-1-1---------------------------1-1-----------------------------------------|

e|---------------------------------------------------------------------------|
B|---------------------------------------------------------------------------|
G|---------------------------------------------------------------------------|
D|--------------8--8-6------------------------3--3-1-------------------------|
A|------6--9------------9-6-----------1--4------------4-1--------------------|
D|-6-6---------------------------1-1-----------------------------------------|


Then this progression:

e|---------------4---4--4-------------------6---6--6-----------------------|
B|--3---3--3-----4---4--4------8---8--8-----6---6--6-----------------------|
G|--3---3--3-----5---5--5------8---8--8-----7---7--7-----------------------|
D|--3---3--3-----6---6--6------8---8--8-----6---6--6-----------------------|
A|--1---1--1-----6---6--6------6---6--6-----8---8--8-----------------------|
D|--------------(6)—(6)(6)-----------------(8)-(8)(8)----------------------|


Repeat the baseline again for the outro and end on this

e|---------------4---4--4-------------------6---6--6-----------------------|
B|--3---3--3-----4---4--4------8---8--8-----6---6--6-----8-----------------|
G|--3---3--3-----5---5--5------8---8--8-----7---7--7-----8-----------------|
D|--3---3--3-----6---6--6------8---8--8-----6---6--6-----8-----------------|
A|--1---1--1-----6---6--6------6---6--6-----8---8--8-----6-----------------|
D|--------------(6)—(6)(6)-----------------(8)-(8)(8)----------------------|

| /  slide up
| \  slide down
| h  hammer-on
| p  pull-off
| ~  vibrato
| +  harmonic
| x  Mute note
===============================================================================
            
Tabs too difficult? Try these video lessons and learn fast.




comments powered by Disqus
↑ Back to top | Tablatures and chords are parodies/interpretations of the original songs. You may use it for private study, scholarship, research or language learning purposes only