>
 >
Scarecrow

Scarecrow Guitar Tabs

Delta Spirit - Scarecrow chords, tabs, tablatures, lyrics

Guitar lessons | Add/correct | Request | Top 50 tabs Artists:  A B C D E F G H I J K L M N O P Q R S T U V W X Y Z 0-9

Scarecrow Guitar Tabs – Delta Spirit

CD, Sheet music, Poster

Do you like Scarecrow? Share with your friends now
ChordsTabsUkulele
-----------------------------------------------------------------------------
-----------------------------------------------------------------------------

Tuning: eBGDGE The song is in open G but don't worry about tuning the E strings. Don't
need them for the song. Just drop the 5th string (A) into G. Listen to song for timing.
Picking speed constant except for hammer-ons. Around 95% sure this is how he plays it. 
Hard to tell on album but this is what it sounds live.

Intro
e|--------------------------------------------------------------------------|
B|-------0-------0-------0-------0-------0--------0-------------------------|
G|---0-------0-------0-------0-------0h3------0h2-------0------0------------|
D|-----0-------0-------0-------0--------------------0h2-----2h3-------------|
G|-0-------0-------0-------0-------0-------(0)------------0------3----------|
E|--------------------------------------------------------------------------|

e|--------------------------------------------------------------------------|
B|-------1-------1-------1-------1-------0--------0-------------------------|
G|---0-------0-------0-------0-------0h3------0h2-------0------0------------|
D|-----2-------2-------2-------2--------------------0h2-----2h3-------------|
G|-0-------0-------0-------0-------0-------(0)------------0------3----------|
E|--------------------------------------------------------------------------|

e|--------------------------------------------------------------------------|
B|-------1-------1-------1-------1------------------------------------------|
G|---0-------0-------0-------0----------------------------------------------|
D|-----2-------2-------2-------2--------------------------------------------|
G|-0-------0-------0-------0------------------------------------------------|
E|--------------------------------------------------------------------------|
Verse 1
Oh scarecrow  You know              why I'm asleep?
e|--------------------------------------------------------------------------|
B|--------0-------0-------1-------1-------0-------0-------1-------1---------|
G|----0-------0-------2-------2-------0-------0-------0-------0-------------|
D|------0-------0-------0-------0-------0-------0-------2-------2-----------|
G|--0-------0-------2-------2-------0-------0-------0-------0---------------|
E|--------------------------------------------------------------------------|

All the weight you bear you cannot carry
e|--------------------------------------------------------------------------|
B|-------0-------1-------0-------1-------0-------0-------0-------0----------|
G|---0-------2-------0-------0-------0-------0-------0-------0--------------|
D|-----0-------0-------0-------2-------0-------0-------0-------0------------|
G|-0-------2-------0-------0-------0-------0-------0-------0----------------|
E|--------------------------------------------------------------------------|

You know you're just like you're mother And your bag all packed to go
e|--------------------------------------------------------------------------|
B|--------0-------0-------1-------1-------0-------0-------1-------1---------|
G|----0-------0-------2-------2-------0-------0-------0-------0-------------|
D|------0-------0-------0-------0-------0-------0-------2-------2-----------|
G|--0-------0-------2-------2-------0-------0-------0-------0---------------|
E|--------------------------------------------------------------------------|

And you hid your heart from everyone you know
e|--------------------------------------------------------------------------|
B|-------0-------1-------0-------1-------0-------0-------0-------0----------|
G|---0-------2-------0-------0-------0-------0-------0-------0--------------|
D|-----0-------0-------0-------2-------0-------0-------0-------0------------|
G|-0-------2-------0-------0-------0-------0-------0-------0----------------|
E|--------------------------------------------------------------------------|

You say you'd never love another, Unless they bore your own name
e|--------------------------------------------------------------------------|
B|--------0-------0-------1-------1-------0-------0-------1-------1---------|
G|----0-------0-------2-------2-------0-------0-------0-------0-------------|
D|------0-------0-------0-------0-------0-------0-------2-------2-----------|
G|--0-------0-------2-------2-------0-------0-------0-------0---------------|
E|--------------------------------------------------------------------------|

Oh your kin, they trample on you just the same
e|--------------------------------------------------------------------------|
B|-------0-------1-------0-------1-------0-------0-------0-------0----------|
G|---0-------2-------0-------0-------0-------0-------0-------0--------------|
D|-----0-------0-------0-------2-------0-------0-------0-------0------------|
G|-0-------2-------0-------0-------0-------0-------0-------0----------------|
E|--------------------------------------------------------------------------|

Oh I Gave my Love to a harlot i'm told
e|----------------------------------------------------------------------------|
B|-------1-------1-------1-------1-------0-------0-------0-------0------------|
G|---0-------0-------0-------0-------0-------0-------0-------0----------------|
D|-----2-------2-------2-------2-------0-------0-------0-------0--------------|
A|-0-------0-------0-------0-------0-------0-------0-------0------------------|
E|----------------------------------------------------------------------------|

And the blackness of a scarecrow no one knows
e|----------------------------------------------------------------------------|
B|-------1-------1-------1-------1-------0-------0-------0-------0------------|
G|---0-------0-------0-------0-------0-------0-------0-------0----------------|
D|-----2-------2-------2-------2-------0-------0-------0-------0--------------|
A|-0-------0-------0-------0-------0-------0-------0-------0------------------|
E|----------------------------------------------------------------------------|

well I'm red in the blood that I have drained
e|----------------------------------------------------------------------------|
B|-------1-------1-------1-------1-------0-------0-------0-------0------------|
G|---0-------0-------0-------0-------0-------0-------0-------0----------------|
D|-----2-------2-------2-------2-------0-------0-------0-------0--------------|
A|-0-------0-------0-------0-------0-------0-------0-------0------------------|
E|----------------------------------------------------------------------------|

That I wasted                        in a rain
e|--------------------------------------------------------------------------|
B|-------1-------1-------1-------1---------0---------0----------------------|
G|---2-------2-------2-------2---------0h3-------0h2-------0-------0--------|
D|-----0-------0-------0-------0-----------------------0h2-----2h3----------|
G|-2-------2-------2-------2---------0-------(0)-------------0-------3------|
E|--------------------------------------------------------------------------|

e|--------------------------------------------------------------------------|
B|-------1-------1-------1-------1-------0-------0--------------------------|
G|---0-------0-------0-------0-------0h3-----0h2---------0-------0----------|
D|-----2-------2-------2-------2---------------------0h2-----2h3---3--------|
G|-0-------0-------0-------0-------0-------0-------0-------0----------------|
E|--------------------------------------------------------------------------|

e|--------------------------------------------------------------------------|
B|-------1-------1-------1-------1-------0-------0--------------------------|
G|---0-------0-------0-------0-------0h3-----0h2---------0-------0----------|
D|-----2-------2-------2-------2---------------------0h2-----2h3---3--------|
G|-0-------0-------0-------0-------0-------0-------0-------0----------------|
E|--------------------------------------------------------------------------|

e|--------------------------------------------------------------------------|
B|------1-------1-------1-------1-------1-------1-------1------1------------|
G|--0-------0-------0-------0-------2-------2-------2------2----------------|
D|----2-------2-------2-------2-------0-------0-------0------0--------------|
G|-0------0-------0-------0-------2-------2-------2-------2-----------------|
E|--------------------------------------------------------------------------|
Verse 2
Well your love that takes your picture, and your love that worships
e|--------------------------------------------------------------------------|
B|--------0-------0-------1-------1-------0-------0-------1-------1---------|
G|----0-------0-------2-------2-------0-------0-------0-------0-------------|
D|------0-------0-------0-------0-------0-------0-------2-------2-----------|
G|--0-------0-------2-------2-------0-------0-------0-------0---------------|
E|--------------------------------------------------------------------------|

Well if you cant see it then soon you will
e|--------------------------------------------------------------------------|
B|-------0-------1-------0-------1-------0-------0-------0-------0----------|
G|---0-------2-------0-------0-------0-------0-------0-------0--------------|
D|-----0-------0-------0-------2-------0-------0-------0-------0------------|
G|-0-------2-------0-------0-------0-------0-------0-------0----------------|
E|--------------------------------------------------------------------------|

And you frequent the same strip club, you love to watch the ladies dance
e|--------------------------------------------------------------------------|
B|--------0-------0-------1-------1-------0-------0-------1-------1---------|
G|----0-------0-------2-------2-------0-------0-------0-------0-------------|
D|------0-------0-------0-------0-------0-------0-------2-------2-----------|
G|--0-------0-------2-------2-------0-------0-------0-------0---------------|
E|--------------------------------------------------------------------------|

Well you always knew i don't do shit like that
e|--------------------------------------------------------------------------|
B|-------0-------1-------0-------1-------0-------0-------0-------0----------|
G|---0-------2-------0-------0-------0-------0-------0-------0--------------|
D|-----0-------0-------0-------2-------0-------0-------0-------0------------|
G|-0-------2-------0-------0-------0-------0-------0-------0----------------|
E|--------------------------------------------------------------------------|

and while I was out in Scotland, You were out with him
e|--------------------------------------------------------------------------|
B|--------0-------0-------1-------1-------0-------0-------1-------1---------|
G|----0-------0-------2-------2-------0-------0-------0-------0-------------|
D|------0-------0-------0-------0-------0-------0-------2-------2-----------|
G|--0-------0-------2-------2-------0-------0-------0-------0---------------|
E|--------------------------------------------------------------------------|

And you took your shot and you threw up your limbs
e|--------------------------------------------------------------------------|
B|-------0-------1-------0-------1-------0-------0-------0-------0----------|
G|---0-------2-------0-------0-------0-------0-------0-------0--------------|
D|-----0-------0-------0-------2-------0-------0-------0-------0------------|
G|-0-------2-------0-------0-------0-------0-------0-------0----------------|
E|--------------------------------------------------------------------------|

Oh I Gave my Love to a harlot i'm told
e|----------------------------------------------------------------------------|
B|-------1-------1-------1-------1-------0-------0-------0-------0------------|
G|---0-------0-------0-------0-------0-------0-------0-------0----------------|
D|-----2-------2-------2-------2-------0-------0-------0-------0--------------|
A|-0-------0-------0-------0-------0-------0-------0-------0------------------|
E|----------------------------------------------------------------------------|

And the blackness of a scarecrow you cannot hold
e|----------------------------------------------------------------------------|
B|-------1-------1-------1-------1-------0-------0-------0-------0------------|
G|---0-------0-------0-------0-------0-------0-------0-------0----------------|
D|-----2-------2-------2-------2-------0-------0-------0-------0--------------|
A|-0-------0-------0-------0-------0-------0-------0-------0------------------|
E|----------------------------------------------------------------------------|

well I'm red in the blood that I have drained
e|----------------------------------------------------------------------------|
B|-------1-------1-------1-------1-------0-------0-------0-------0------------|
G|---0-------0-------0-------0-------0-------0-------0-------0----------------|
D|-----2-------2-------2-------2-------0-------0-------0-------0--------------|
A|-0-------0-------0-------0-------0-------0-------0-------0------------------|
E|----------------------------------------------------------------------------|

That I wasted                        in a rain
e|--------------------------------------------------------------------------|
B|-------1-------1-------1-------1---------0---------0----------------------|
G|---2-------2-------2-------2---------0h3-------0h2-------0-------0--------|
D|-----0-------0-------0-------0-----------------------0h2-----2h3----------|
G|-2-------2-------2-------2---------0-------(0)-------------0-------3------|
E|--------------------------------------------------------------------------|

e|--------------------------------------------------------------------------|
B|-------1-------1-------1-------1-------0-------0--------------------------|
G|---0-------0-------0-------0-------0h3-----0h2---------0-------0----------|
D|-----2-------2-------2-------2---------------------0h2-----2h3---3--------|
G|-0-------0-------0-------0-------0-------0-------0-------0----------------|
E|--------------------------------------------------------------------------|

e|--------------------------------------------------------------------------|
B|-------1-------1-------1-------1-------0-------0--------------------------|
G|---0-------0-------0-------0-------0h3-----0h2---------0-------0----------|
D|-----2-------2-------2-------2---------------------0h2-----2h3---3--------|
G|-0-------0-------0-------0-------0-------0-------0-------0----------------|
E|--------------------------------------------------------------------------|

e|--------------------------------------------------------------------------|
B|------1-------1-------1-------1-------1-------1-------1------1------------|
G|--0-------0-------0-------0-------2-------2-------2------2----------------|
D|----2-------2-------2-------2-------0-------0-------0------0--------------|
G|-0------0-------0-------0-------2-------2-------2-------2-----------------|
E|--------------------------------------------------------------------------|
Verse 3
Well you deserve applause, for splitting me in two
e|--------------------------------------------------------------------------|
B|--------0-------0-------1-------1-------0-------0-------1-------1---------|
G|----0-------0-------2-------2-------0-------0-------0-------0-------------|
D|------0-------0-------0-------0-------0-------0-------2-------2-----------|
G|--0-------0-------2-------2-------0-------0-------0-------0---------------|
E|--------------------------------------------------------------------------|

Well I count you on the list of a mortal few
e|--------------------------------------------------------------------------|
B|-------0-------1-------0-------1-------0-------0-------0-------0----------|
G|---0-------2-------0-------0-------0-------0-------0-------0--------------|
D|-----0-------0-------0-------2-------0-------0-------0-------0------------|
G|-0-------2-------0-------0-------0-------0-------0-------0----------------|
E|--------------------------------------------------------------------------|

And i hope that you were happy, I can only wish you the best
e|--------------------------------------------------------------------------|
B|--------0-------0-------1-------1-------0-------0-------1-------1---------|
G|----0-------0-------2-------2-------0-------0-------0-------0-------------|
D|------0-------0-------0-------0-------0-------0-------2-------2-----------|
G|--0-------0-------2-------2-------0-------0-------0-------0---------------|
E|--------------------------------------------------------------------------|

But your beauty vacant setting in the west
e|--------------------------------------------------------------------------|
B|-------0-------1-------0-------1-------0-------0-------0-------0----------|
G|---0-------2-------0-------0-------0-------0-------0-------0--------------|
D|-----0-------0-------0-------2-------0-------0-------0-------0------------|
G|-0-------2-------0-------0-------0-------0-------0-------0----------------|
E|--------------------------------------------------------------------------|

And this may just sound redundant beacause you've chosen you own fate
e|--------------------------------------------------------------------------|
B|--------0-------0-------1-------1-------0-------0-------1-------1---------|
G|----0-------0-------2-------2-------0-------0-------0-------0-------------|
D|------0-------0-------0-------0-------0-------0-------2-------2-----------|
G|--0-------0-------2-------2-------0-------0-------0-------0---------------|
E|--------------------------------------------------------------------------|

You were more to me than just a pretty face
e|--------------------------------------------------------------------------|
B|-------0-------1-------0-------1-------0-------0-------0-------0----------|
G|---0-------2-------0-------0-------0-------0-------0-------0--------------|
D|-----0-------0-------0-------2-------0-------0-------0-------0------------|
G|-0-------2-------0-------0-------0-------0-------0-------0----------------|
E|--------------------------------------------------------------------------|

Well I'll give my Love to a harlot i'm will
e|----------------------------------------------------------------------------|
B|-------1-------1-------1-------1-------0-------0-------0-------0------------|
G|---0-------0-------0-------0-------0-------0-------0-------0----------------|
D|-----2-------2-------2-------2-------0-------0-------0-------0--------------|
A|-0-------0-------0-------0-------0-------0-------0-------0------------------|
E|----------------------------------------------------------------------------|

And the blackness of a scarecrow you cannot kill
e|----------------------------------------------------------------------------|
B|-------1-------1-------1-------1-------0-------0-------0-------0------------|
G|---0-------0-------0-------0-------0-------0-------0-------0----------------|
D|-----2-------2-------2-------2-------0-------0-------0-------0--------------|
A|-0-------0-------0-------0-------0-------0-------0-------0------------------|
E|----------------------------------------------------------------------------|

well I'm red in the blood that I have drained
e|----------------------------------------------------------------------------|
B|-------1-------1-------1-------1-------0-------0-------0-------0------------|
G|---0-------0-------0-------0-------0-------0-------0-------0----------------|
D|-----2-------2-------2-------2-------0-------0-------0-------0--------------|
A|-0-------0-------0-------0-------0-------0-------0-------0------------------|
E|----------------------------------------------------------------------------|

That I wasted                        waiting for rain
e|--------------------------------------------------------------------------|
B|-------1-------1-------1-------1---------1-------1-------1--------1-------|
G|---2-------2-------2-------2---------2-------2-------2------2-------------|
D|-----0-------0-------0-------0---------0-------0-------0-------0----------|
G|-2-------2-------2-------2---------2-------2-------2------2---------------|
E|--------------------------------------------------------------------------|

e|--------------------------------------------------------------------------|
B|-------0-------0--------------------------1-------1------1-------1--------|
G|---0h3-----0h2---------0-------0------0-------0------0-------0------------|
D|-------------------0h2-----2h3----------2-------2------2-------2----------|
G|-0-------0---------------0-------3--0-------0------0-------0--------------|
E|--------------------------------------------------------------------------|

e|--------------------------------------------------------------------------|
B|-------0-------0--------------------------1-------1------1-------1--------|
G|---0h3-----0h2---------0-------0------0-------0------0-------0------------|
D|-------------------0h2-----2h3----------2-------2------2-------2----------|
G|-0-------0---------------0-------3--0-------0------0-------0--------------|
E|--------------------------------------------------------------------------|

e|--------------------------------------------------------------------------|
B|-------0-------0--------------------------1-------1------1-------1--------|
G|---0h3-----0h2---------0-------0------0-------0------0-------0------------|
D|-------------------0h2-----2h3----------2-------2------2-------2----------|
G|-0-------0---------------0-------3--0-------0------0-------0--------------|
E|--------------------------------------------------------------------------|

e|--------------------------------------------------------------------------|
B|-------1-------1-------1-------1---------1-------1-------1--------1------0|
G|---2-------2-------2-------2---------2-------2-------2------2-------2----0|
D|-----0-------0-------0-------0---------0-------0-------0-------0------0--0|
G|-2-------2-------2-------2---------2-------2-------2------2------------2-0|
E|--------------------------------------------------------------------------|





Comments


Popular Delta Spirit tabs & chords
Ballad Of Vitaly Chords
California 1 Chords
Devil Knows Chords
Devil Knows 1 Chords
Empty House 1 Chords
Salt On The Wound Chords
St. Francis Chords
Trashcan Chords
White Table Intro 1 Tabs
Streetwalker Ukulele


Song lyrics



↑ Back to top | Tablatures and chords are parodies/interpretations of the original songs. You may use it for private study, scholarship, research or language learning purposes only
© 2014 AZChords.com Contact us | Privacy policy | DMCA | Add/correct tabs | Request tabs | Top 50 tabs