» » »

Delta Spirit, Bushwick Blues Tabs (ver.1)

Artists:  A B C D E F G H I J K L M N O P Q R S T U V W X Y Z # 

Bushwick Blues Tabs (ver.1)

Delta Spirit Tabs
 Rating:
4/5 (4 votes)
Bushwick Blues lessons Tabs too difficult? Try these video lessons and learn fast
                
G                Bm             Am            G
Hold on to my hands, never let go, never let go
G                            Bm
We’re just two kids acting tough
Am                                 G
Than we grew up, well me not so much
          Em                Bm             G              Bm
All the other guys that you meet, were nothing compared to me

Am                                   D               G
Cause my love is strong and my heart is weak after all

riff E------------------------------------------|
     G------------------------------------------|
     B------------------------------------------|
     D------------------------------------------|
     A------9--7--5----5-5------555--7----------|
     E---3-----------7-------7-----------5------|

G                             Bm
when we first met we spoke so brief
              Am                  G
You sang a sonnet I hum sweet relief
                                     Bm
Do you recall that night, We took the L
            Am                        G
Out in the bushwick it was colder than hell
Em                        Bm           Em                                Bm
Maybe there it should have stopped cause I’m out here feeling like they cop..
Am                              D                  G
Cause my love is strong and my heart is weak after all


Solo E---------------------------------------------------------------------|
     G---------------------------------------------------------------------|
     B---------------------------------------------------------------------|
     D---------------------------------------------9----12--9--------------|
     A------9--7--5---55-----555--7----7---9-10--12-----------12--10--9--7-|
     E---3-----------7---7-7--------5--------------------------------------|


--------------------------------------------------------------------|
--------------------------------------------------------------------|
--------------------------------------------------------------------|
--------------------------------------------------------------------|
----------------------7--5------------------------------------------|
--10---7----10----7----------7--5-5---3----0---3--------------------|

                 G              Bm
To the other side early states return
                Am                        G
I met a young girl well I couldn’t manage her
 G                                       Bm
Because I think of you and every girl I meet there’s no relief
 Am                         G
Cause none’s to me just as sweet
         G                    Bm                   G
Maybe I’m a fool for feeling used but the way we kissed that night I thought
    Bm
 you knew
                   Am             D               G
Well my love is strong and my heart is weak after all

(Last Epic Breakdown part with The Synth Riff)

 Bm G Bm Am D Am D Am D G

Synth Pedal Riff


E--------------------------------------------------------------------------|
G--12ring-------10---8-7-8------12ring-------10---8-7-8---5--7-8--10-8-7-8-|
B--------------------------------------------------------------------------|
D--------------------------------------------------------------------------|
A--------------------------------------------------------------------------|
E--------------------------------------------------------------------------|



E----------------------------------------------------------|
G--12slide13----15-latebend---12---------------------------|
B----------------------------------------------------------|
D----------------------------------------------------------|
A----------------------------------------------------------|
E----------------------------------------------------------|
            
Submit corrections

comments powered by Disqus
↑ Back to top | Delta Spirit Tabs for Bushwick Blues. Lyrics for acoustic guitar and electric guitar. Tablatures and chords are parodies/interpretations of the original songs. You may use it for private study, scholarship, research or language learning purposes only