» » »

Hats Off To Larry Tabs (ver.1)

Artists:  A B C D E F G H I J K L M N O P Q R S T U V W X Y Z # 

Hats Off To Larry Tabs (ver.1)

Del Shannon
Rating:
0/5 (0 votes)

Tabs too difficult? Try these video lessons and learn fast.
                I'm going to transcribe the whole song even though the previous tab on the site is 
but i want to add the solo.

Standard Tuning

Bm(strum once with appregiation)
Once I had a pretty girl
A(strum once with appregiation)
Her name it doesn't matter
G7(strum once with appregiation)
She went away with another guy
F#7(strum once with appregiation)
Now he wont even look at her

e--222--222-22--222--222-22--|
b--222--222-22--222--222-22--|
g--333--333-33--333--333-33--| (this part leads into verse)
d--222--222-22--222--222-22--|
a--444--444-44--444--444-44--|
e--222--222-22--222--222-22--|

Verse 1

B
Hats off to Larry
Ebm
He broke your heart
E
Just like you broke mine
          Em
When you said we must part
B           B+            E              Em(strum once then stop)
He told you lies, now its your turn to cry cry cry
B                 F#7
Now that larry's said goodbye to you

e--777------777-7--|
b--777--999-777-7--| (this part leads into bridge)
g--888--999-888-8--|
d--999--999-999-8--|
a--999--777-999-9--|
e--777------777-7--|

Bridge

F#7
I know this may sound strange
G7
I want you back I think you'll change
A                                   D
But there's one more thing I gotta say

e--222-22-22--|
b--222-22-22--|
g--333-33-33--|
d--222-22-22--| (leads into verse 2)
a--444-44-44--|
e--222-22-22--|

Verse 2

B
Hats off to larry
Ebm
It may sound cruel
E
But you laughed at me
           Em
When you said we were through
B           B+               E        Em(strum once only)
You told me lies but its your turn to cry cry cry
B                 F#7
Now that larry's said goodbye to you

e--777-----777-7--|
b--777-999-777-7--|
g--888-999-888-8--|  (this leads into solo)
d--999-999-999-9--|
a--999-777-999-9--|
e--777-----777-7--|

Solo (over intro chord progression)

e--7-9-10-7-10-7~-9-7-5-7-9-7~-3-5-7-5-3-2~--|
b--------------------------------------------| (2x)
g--------------------------------------------|
d--------------------------------------------|
a--------------------------------------------|
e--------------------------------------------|

B
Hats off to Larry
Ebm
He broke your heart
E
Just like you broke mine
          Em
When you said we must part
B            B+            E           Em(strum once)
You told me lies, now its your turn to cry cry cry
B                 F#7
Now that Larry's said goodbye to you

e------000-222-22-22--|
b--444-000-222-22-22--|
g--444-111-333-33-33--|  (Repeat and fade)
d--444-222-444-44-44--|
a--222-222-444-44-44--|
e------000-222-22-22--|

Notation guide
~-let note ring

The Rocnracer rocking out tabs to you!!!!!!!
            
Tabs too difficult? Try these video lessons and learn fast.




comments powered by Disqus
↑ Back to top | Tablatures and chords are parodies/interpretations of the original songs. You may use it for private study, scholarship, research or language learning purposes only