» » »

Del Shannon, Cry Myself To Sleep Bass tabs (ver.1)

Artists:  A B C D E F G H I J K L M N O P Q R S T U V W X Y Z # 

Cry Myself To Sleep Bass tabs (ver.1)

Del Shannon Tabs
Rating:
0/5 (0 votes)
Cry Myself To Sleep lessons Tabs too difficult? Try these video lessons and learn fast
                Intro
G-------------------------|
D-------------------------|
A-------------------------|
E-44-44-44-44-44-44-44-44-|

Verse
G-------------------------------------------------|
D-------------------------------------------------|
A-------------------------------------------------|
E-44-44-44-44-44-44-44-44-11-11-11-11-11-11-11-11-|

G-------------------------------------------|
D-------------------------------------------|
A-44-44-44-44-44-44-44-44----4-----66-66-66-|
E-------------------------44----44----------|

Chorus ("Cry-eye-yeyeeyeeyeeyeeye...")
G-------------------------------------------------|
D-------------------------------------------------|
A-------------------------------------------------|
E-44-44-44-44-44-44-44-44-11-11-11-11-11-11-11-11-|

G-------------------------------------------------|
D-------------------------------------------------|
A-44-44-44-44-44-44-44-44-66-66-66-66-66-66-66-66-|
E-------------------------------------------------|

Bridge
G---------------------------------------------------------------------|
D---3-6-3----3-6-3----------------------3-6-3----3-6-3----------------|
A-4--------4----------3-6-3----3-6-3--4--------4--------6--6--6-6-6-6-|
E-------------------4--------4----------------------------------------|

Intro
Verse x2
Chorus
Bridge
Verse 
Chorus
Bridge
Verse
Chours (fades out)
            
Submit corrections

comments powered by Disqus
↑ Back to top | Del Shannon Bass for Cry Myself To Sleep. Lyrics for acoustic guitar and electric guitar. Tablatures and chords are parodies/interpretations of the original songs. You may use it for private study, scholarship, research or language learning purposes only