» » »

This Momentary Bass tabs (ver.1)

Artists:  A B C D E F G H I J K L M N O P Q R S T U V W X Y Z # 

This Momentary Bass tabs (ver.1)

Delphic
Rating:
5/5 (2 votes)

Hard to play? Try these video lessons and learn fast.
                -------------------------------------------------------------------------------
-------------------------------------------------------------------------------


Tuning: Standard

Intro:

G|---------------------------------------------------------------------------|
D|----------4-4-4-4------------------------------------------2-2-2-2---------| x2
A|--2-2-2-2---------5-5-5-5------------------2-2-2-2-0-0-0-0-----------------|
E|--------------------------5-5-5-5//3-3-3-3---------------------------------|

Verse: 'We, you and me what is said wasn't never meant to hurt...'
   Bm               D/F#             G               A5
G|---------------------------------------------------------------------------|
D|----------4-4-4-4------------------------------------------2-2-2-2---------| x12
A|--2-2-2-2---------5-5-5-5------------------2-2-2-2-0-0-0-0-----------------|
E|--------------------------5-5-5-5//3-3-3-3---------------------------------|

Interlude; no bass, replaced by synth.

Chorus: 'Oooh, woah'

    Bm               Dmaj7           G              F#5            A5
G|---------------------------------------------------------------------------|
D|---------------------------------------------------------------------------| x2
A|--2-2-2-2-2-2-2-2//5-5-5-5-5-5-5-5-----------------------------------------|
E|-----------------------------------3-3-3-3-3-3-3-3-3\\2-2-2-2-xp0h5--------|

    Bm               Dmaj7           G              F#5            A5
G|-------------------------------4-------------------------------------------|
D|---------------------------------4-----------------------------------------| x1!
A|--2-2-2-2-2-2-2-2//5-5-5-5-x-5---------------------------------------------|
E|-----------------------------------3-3-3-3-3-3-3-3-3\\2-2-2-2-xp0h5--------|

    Bm               Dmaj7           G              F#5            A5
G|---------------------------------------------------------------------------|
D|---------------------------------------------------------------------------| Till Interlude
A|--2-2-2-2-2-2-2-2//5-5-5-5-5-5-5-5-----------------------------------------|
E|-----------------------------------3-3-3-3-3-3-3-3-3\\2-2-2-2-xp0h5--------|

Interlude (with layered vocal effects, synth replaces bass)

Verse: 'We, you and me what is said wasn't never meant to hurt...'
   Bm               D/F#             G               A5
G|---------------------------------------------------------------------------|
D|----------4-4-4-4------------------------------------------2-2-2-2---------| Till end
A|--2-2-2-2---------5-5-5-5------------------2-2-2-2-0-0-0-0-----------------|
E|--------------------------5-5-5-5//3-3-3-3---------------------------------|

LAST TIME:
                                                                (w/ vibrato)
   Bm               D/F#             G               A5         (let ring)
G|---------------------------------------------------------------------------||
D|----------4-4-4-4------------------------------------------2-2-2-(2)-------||
A|--2-2-2-2---------5-5-5-5------------------2-2-2-2-0-0-0-0-----------------||
E|--------------------------5-5-5-5//3-3-3-3---------------------------------||


/  slide up
\  slide down
h  hammer-on
p  pull-off
~  vibrato
+  harmonic
x  Mute note
            
Hard to play? Try these video lessons and learn fast. | Correct




comments powered by Disqus
↑ Back to top | Tablatures and chords are parodies/interpretations of the original songs. You may use it for private study, scholarship, research or language learning purposes only