» » »

Halcyon Bass tabs (ver.1)

Artists:  A B C D E F G H I J K L M N O P Q R S T U V W X Y Z # 

Halcyon Bass tabs (ver.1)

Delphic
Rating:
5/5 (2 votes)

Hard to play? Try these video lessons and learn fast.
                Halcyon by Delphic

Verse

You said enough, you said too much
You focus solely on her touch
in Halycon
G|----------------------------------------------------|
D|----------------------------------------------------|
A|-----------------0-7------0-5-----2-3--0------------|
E|----3-5-------3--------3--------3-------------------|

In arguements set in stone
In promises of what was once
You come undone
G|----------------------------------------------------|
D|----------------------------------------------------|
A|-----------------0-7------0-5-----2-3--0------------|
E|----3-5-------3--------3--------3-------------------|

Pre-chorus
If you take this away
I'll fade to black and disappear
G|-----------------------------------------------------|
D|-----------------------------------------------------|
A|-----0-----------------------------------------------|
E|-----------------------------------------------------|

If it's all     a state     of mind
G|-----------------------------------------------------|
D|-----------------------------------------------------|
A|----5----0-------------------------------------------|
E|-------------------3---------------------------------|

Chorus
You give me something that I can believe in (aaahhh)
G|-------------------------------------------------------|
D|-------------------------------------------------------|
A|--5--5-5--3-5--0--0-0--0----------------0-3-0----------|
E|------------------------------3--3-3--0-3--------------|

What you say doesn't say that you mean it (aaahhh)
G|-------------------------------------------------------------|
D|-------------------------------------------------------------|
A|--5--5-5--3-5--0--0-0--0----------------0-3-0- -0-7-0--------|
E|------------------------------3--3-3--0-3--------------------|


If i'm wrong then at least I know better
G|-------------------------------------------------------|
D|-------------------------------------------------------|
A|--5--5-5--3-5--0--0-0--0----------------0-3-0----------|
E|------------------------------3--3-3--0-3--------------|

You give me something that I can believe in
G|-----------------------------------------------------------|
D|-----------------------------------------------------------|
A|--5--5-5--3-5--0--0-0--0---------------------------------0-|
E|------------------------------3--3-3--0-3-3--3--3-3-3------|
(Hold last note)

Verse 2 
(No bass)
No more, no causes and effects 
You're not looking back, live in regret of Halycon.
And I know, I know I try too much
All the time I waste, yeah i'm losing touch all the time.

Pre-chorus
And if you take this away, I'll fade to black and disappear
(Bass starts) 
If it's all     a state     of mind
G|-----------------------------------------------------|
D|-----------------------------------------------------|
A|----5----0-------------------------------------------|
E|-------------------3---------------------------------|

Chorus
You give me something that I can believe in (aaahhh)
G|-------------------------------------------------------|
D|-------------------------------------------------------|
A|--5--5-5--3-5--0--0-0--0----------------0-3-0----------|
E|------------------------------3--3-3--0-3--------------|

What you say doesn't say that you mean it (aaahhh)
G|-------------------------------------------------------------|
D|-------------------------------------------------------------|
A|--5--5-5--3-5--0--0-0--0----------------0-3-0- -0-7-0--------|
E|------------------------------3--3-3--0-3--------------------|


If i'm wrong then at least I know better
G|-------------------------------------------------------|
D|-------------------------------------------------------|
A|--5--5-5--3-5--0--0-0--0----------------0-3-0----------|
E|------------------------------3--3-3--0-3--------------|

You give me something that I can believe in.
G|----------------------------------------------------------------|
D|----------------------------------------------------------------|
A|--5--5-5--3-5--0--0-0--0---------------------------------0------|
E|------------------------------3--3-3--0-3-3--3--3-3-3-----------|


Instrumental
(no bass)

G|----------------------------------------------------------|
D|----------------------------------------------------------|
A|-----5----8----10-0-5----8----10--------------------------|
E|---------------------------------------3--5----3--5-------|


Guitar solo
G|-----------------------------------------------------------------|
D|-----------------------------------------------------------------|
A|--5--5-5--3-5--0--0-0--0----------------0-3-0---0-3-5-7----------|
E|------------------------------3--3-3--0-3------------------------|

G|-------------------------------------------------------------|
D|-------------------------------------------------------------|
A|--5--5-5--3-5--0--0-0--0----------------0-3-0- -0-7-0--------|
E|------------------------------3--3-3--0-3--------------------|

G|-------------------------------------------------------|
D|-------------------------------------------------------|
A|--5--5-5--3-5--0--0-0--0----------------0-3-0----------|
E|------------------------------3--3-3--0-3--------------|

G|-------------------------------------------------------|
D|-------------------------------------------------------|
A|--5--5-5--3-5--0--0-0--0----------------0-3-0----------|
E|------------------------------3--3-3--0-3--------------|

Chorus
You give me something that I can believe in (aaahhh)
G|-------------------------------------------------------|
D|-------------------------------------------------------|
A|--5--5-5--3-5--0--0-0--0----------------0-3-0----------|
E|------------------------------3--3-3--0-3--------------|

What you say doesn't say that you mean it (aaahhh)
G|-------------------------------------------------------------|
D|-------------------------------------------------------------|
A|--5--5-5--3-5--0--0-0--0----------------0-3-0- -0-7-0--------|
E|------------------------------3--3-3--0-3--------------------|


If i'm wrong then at least I know better
G|-------------------------------------------------------|
D|-------------------------------------------------------|
A|--5--5-5--3-5--0--0-0--0----------------0-3-0----------|
E|------------------------------3--3-3--0-3--------------|

You give me something that I can believe in.
G|----------------------------------------------------------------|
D|----------------------------------------------------------------|
A|--5--5-5--3-5--0--0-0--0---------------------------------0------|
E|------------------------------3--3-3--0-3-3--3--3-3-3-----------|

Outro
G|------------------------------------------|
D|------------------------------------------|
A|-----5----8----10-------------------------|
E|----------------------3--5----------------|
            
Hard to play? Try these video lessons and learn fast. | Correct




comments powered by Disqus
↑ Back to top | Tablatures and chords are parodies/interpretations of the original songs. You may use it for private study, scholarship, research or language learning purposes only