» » »

Delphic, Doubt Tabs (ver.2)

Artists:  A B C D E F G H I J K L M N O P Q R S T U V W X Y Z # 

Doubt Tabs (ver.2)

Delphic Tabs
 Rating:
4.2/5 (5 votes)
Doubt lessons Tabs too difficult? Try these video lessons and learn fast
                Delphic are gonna be massive in 2010, so learning this song should
be your new years resolution ;)


I've tabbed out the Guitar and Bass, and written the chords 
that the synth(s) play

SYNTH

Intro/Verse

Cm/D#

Pre Chorus 

Cm

A Second Synth plays Gm/Dm/F/D# over the top

Chorus

G#/Gm/A#/Cm

Verse 

Pre Chorus

Chorus

Break

Hold D# for a while and then play G#/Gm/A#/Cm twice

During Solo play G#/Gm/A#/Cm

Chorus to end :)

BASS

Verse
G|--------------------------------------------------------|
D|--------------------------------------------------------|
A|--------------66-666-66-666---------------66-666-66-666-|
E|88-888-88-888---------------88-888-88-888---------------|

Pre Chorus
G|-----------------------------|
D|-----------------------------|
A|-----------------------------|
E|88-8-88-88-888-88-8-8-88-888-|

Chorus
G|----------------------------------------|
D|----------------------------------------|
A|----------------------------------------|
E|4-4-4-4-4-3-3-3-3-3-6-6-6-6-6-8-8-8-8-8-|

Pre Verse
G|--------------------------------|
D|--------------------------------|
A|--------------------------------|
E|88-8888-88-8888-88-8888-88-8888-|

Verse

Pre Chorus

Chorus

Break/Solo - Wait until Synth starts playing Chorus part
G|-------------------------------|
D|-------------------------------|
A|-------------------------------|
E|444444333333336666666688888888-|

Chorus to end

GUITAR!!!!!!!!

Sits out Intro and Verse 1

Chorus
e|15-----18-18-20-20---15----18-18-20-20----|
B|--18-------------------18-----------------|
G|----17-------------17----17------------17-|
D|------------------------------------------|
A|------------------------------------------|
E|------------------------------------------|

Verse 2
e|666643-----------------|
B|------4~----1-1~--1----|
G|-----------3-3------3~-|
D|-----------------------|
A|-----------------------|
E|-----------------------|

Chorus

Break
e|666643-----------666643--------------666643--------------666643--|
B|------4----1-1---------4--------1-1--------4-3b~---1-1---------4-|
G|----------3-3------------------3-3----------------3-3------------|
D|-----------------------------------------------------------------|
A|-----------------------------------------------------------------|
E|-----------------------------------------------------------------|

Solo
e|----------------------------------------------------------------|
B|4444334433443333333333666666444-4444334433443333333333666666666-|
G|3333333333333333333333xxxxxxxxx-3333333333333333333333xxxxxxxxx-|
D|----------------------555555555-----------------------555555555-|
A|----------------------------------------------------------------|
E|----------------------------------------------------------------|

e|333334433333344--------------------------------------------|
B|444446644444466-------444444-44444334433443333333333444666-|
G|---------------5555533333333-33333333333333333333333333xxx-|
D|---------------5555533---------------------------------555-|
A|-----------------------------------------------------------|
E|-----------------------------------------------------------|

Last Chorus
e|666664433-------|
B|666664444443344-|
G|---------333333-|
D|----------------|
A|----------------|
E|----------------|

There we are, long I know, but should all be accurate :D
            
Submit corrections

comments powered by Disqus
↑ Back to top | Delphic Tabs for Doubt. Lyrics for acoustic guitar and electric guitar. Tablatures and chords are parodies/interpretations of the original songs. You may use it for private study, scholarship, research or language learning purposes only