» » »

Delphic, Doubt Bass tabs (ver.1)

Artists:  A B C D E F G H I J K L M N O P Q R S T U V W X Y Z # 

Doubt Bass tabs (ver.1)

Delphic Tabs
 Rating:
4.4/5 (7 votes)
Doubt lessons Tabs too difficult? Try these video lessons and learn fast
                Verse
(Wanting meaning..)
G|--------------------------------------------------------|
D|--------------------------------------------------------|
A|--------------66-666-66-666---------------66-666-66-666-| x2
E|88-888-88-888---------------88-888-88-888---------------|

Pre Chorus
G|-------------------------------------------|
D|-------------------------------------------|
A|-------------------------------------------|
E|88-888-88--88-888-88--88-888-88-88-888-88--|

Chorus
(Doubt..)
G|----------------------------------------|
D|----------------------------------------|
A|----------------------------------------| x4
E|4-4-4-4-4-3-3-3-3-3-6-6-6-6-6-8-8-8-8-8-|

Pre Verse
G|-------------------------------------------|
D|-------------------------------------------|
A|-------------------------------------------|
E|88-888-88--88-888-88--88-888-88-88-888-88--|

Verse
(Missing a life gone by...)
G|--------------------------------------------------------|
D|--------------------------------------------------------|
A|--------------66-666-66-666---------------66-666-66-666-| x4
E|88-888-88-888---------------88-888-88-888---------------|

Pre Chorus
G|-------------------------------------------|
D|-------------------------------------------|
A|-------------------------------------------|
E|88-888-88--88-888-88--88-888-88-88-888-88--|


Chorus
G|-------------------------|
D|-------------------------|
A|-------------------------| x4
E|4-44--3-33--6-66--8-88---|


Break/Solo
Play chorus part until this at (3:12)
G|-----------------------------------------|
D|-----------------------------------------|
A|-----------------------------------------| x3
E|44444444-33333333-66666666-888888-11-11--|
(Those are 1's not 11's)

Chorus to end


Adapted from a tab by patch17
            
Submit corrections

comments powered by Disqus
↑ Back to top | Delphic Bass for Doubt. Lyrics for acoustic guitar and electric guitar. Tablatures and chords are parodies/interpretations of the original songs. You may use it for private study, scholarship, research or language learning purposes only