» » »

Delphic, Doubt Tabs (ver.1)

Artists:  A B C D E F G H I J K L M N O P Q R S T U V W X Y Z # 

Doubt Tabs (ver.1)

Delphic Tabs
Rating:
4/5 (2 votes)
Doubt lessons Tabs too difficult? Try these video lessons and learn fast
                -------------------------------------------------------------------------------
-------------------------------------------------------------------------------

Tuning: Standard

Play nothing for Intro and Verse 1



Chorus: Play with reverb and a bit of delay

e|---15-------18--20------------15------18--20-------------------------------|
B|-----18-------------------------18-----------------------------------------|
G|-------17----------17-17----------17---------17----------------------------|
D|---------------------------------------------------------------------------| x 4
A|---------------------------------------------------------------------------|
E|---------------------------------------------------------------------------|



Verse 2:


   ...near me I get tired                 ...When you speak...
e|---------------------------------------------------------------------------|
B|------------------------11-11-11-11-9-8------------------------------------|
G|----------------------------------------8----------------------------------|
D|--------------------------------------------8h10p8h10-------10p8-----------|
A|---------------------------------------------------------------------------|
E|---------------------------------------------------------------------------|



Chorus: Again, play with reverb and a bit of delay

e|---15-------18--20------------15------18--20-------------------------------|
B|-----18-------------------------18-----------------------------------------|
G|-------17----------17-17----------17---------17----------------------------|
D|---------------------------------------------------------------------------| x 4
A|---------------------------------------------------------------------------|
E|---------------------------------------------------------------------------|



Break: 

e|---------------------------------------------------------------------------|
B|------11-11-11-11-9-8------------------11-11-11-11-9-8---------------------|
G|----------------------8--------------------------------8-------------------|
D|----------------------------8h10p8h10----------------------8h10p8h10-10----|
A|---------------------------------------------------------------------------|
E|---------------------------------------------------------------------------|


e|---------------------------------------------------------------------------|
B|------11-11-11-11-9-8----------------------------11-11-11-11-9-8-----------|
G|----------------------8-8p7-7-7----------------------------------8---------|
D|---------------------------------8h10-10-8-10------------------------------|
A|---------------------------------------------------------------------------|
E|---------------------------------------------------------------------------|



Solo: Distortion, It may look complicated, but this is how Matt plays it.

e|---------------------------------------------------------------------------|
B|-44444-33-44-33-44-3333333333--6-6666-444----------------------------------|
G|-33333-33-33-33-33-3333333333--x-xxxx-xxx----------------------------------|
D|-xxxxx-xx-xx-xx-xx-xxxxxxxxxx--5-5555-555----------------------------------|
A|-33333 33-33-33-33-3333333333----------------------------------------------|
E|---------------------------------------------------------------------------|

e|---------------------------------------------------------------------------|
B|-44444-33-44-33-44-3333333333--66666666--8-8-8888-9--9---8-8-8888-9--9-----|
G|-33333-33-33-33-33-3333333333--xxxxxxxx--8-8-8888-8--8---8-8-8888-8--8-----|
D|-xxxxx-xx-xx-xx-xx-xxxxxxxxxx--55555555--8-8-8888-10-10--8-8-8888-10-10----|
A|-33333 33-33-33-33-3333333333----------------------------------------------|
E|---------------------------------------------------------------------------|

e|---------------------------------------------------------------------------|
B|-6-6666-444-/8-888888--44444-33-44-33-44-3333333333-4-44-6-666-------------|
G|-x-xxxx-xxx-/8-888888--33333-33-33-33-33-3333333333-3-33-5-555-------------|
D|-5-5555-555-/8---------xxxxx-xx-xx-xx-xx-xxxxxxxxxx-x-xx-5-555-------------|
A|-----------------------33333-33-33-33-33-3333333333-3-33-------------------|
E|---------------------------------------------------------------------------|



Chorus: Different from usual but same sound; Delay and reverb.

e|---------------------------------------------------------------------------|
B|--11-11-11-11-9-8-----------11-11-11-11-9-8--------------------------------|
G|------------------8--7--8-------------------8--8--10-----------------------|
D|---------------------------------------------------------------------------| x4
A|---------------------------------------------------------------------------|
E|---------------------------------------------------------------------------|


End

************************************

| /   slide up
| \   slide down
| h   hammer-on
| p   pull-off
| ~   vibrato
| +   harmonic
| x   Mute note
| b   Bend
| pb  Pre-bend
| br  Bend release
| pbr Pre-bend release
| brb Bend release bend

************************************
            

comments powered by Disqus
↑ Back to top | Delphic Tabs for Doubt. Lyrics for acoustic guitar and electric guitar. Tablatures and chords are parodies/interpretations of the original songs. You may use it for private study, scholarship, research or language learning purposes only