» » »

Majesty Tabs

Artists:  A B C D E F G H I J K L M N O P Q R S T U V W X Y Z # 

Majesty Tabs

(ver. 1)
Delirious Tabs
 Rating:
2.8/5 (10 votes)
    Majesty lessons Tabs too difficult? Try these video lessons and learn fast
                |---------------------|------------------|-----------------|---------------|
|-----------0-----0---|--------0-----0---|-------0------0--|-------0-------|
|-----7---7-----7---7-|--6---6-----6---6-|-4---4------4---4|-4---4--4p0—0--|
|-------0-----0-------|----0-----0-------|---0-----0-------|---0--------0--|
|---------------------|------------------|-----------------|---------------|
|-----7---------------|--5---------------|-3---------------|-3-------------|


|---------------------|------------------|-----------------|---------------|
|-----------0-----0---|--------0-----0---|-------0------0--|-------0-------|
|-----7---7-----7---7-|--6---6-----6---6-|-4---4------4---4|-4---4--4p0—0--|
|-------0-----0-------|----0-----0-------|---0-----0-------|---0--------0--|
|---------------------|------------------|-----------------|---------------|
|-----7---------------|--5---------------|-3---------------|-3-------------|



|--------|---------------|-----------------|-----------------|-------------|
|--------|------0-----0--|--------0-----0--|-------0------0--|-------0-----|
|--------|7---7-----7---7|--6---6-----6---6|-4---4------4---4|-4---4--4p0—0|
|--------|--0-----0------|----0-----0------|---0-----0-------|---0--------0|
|--------|---------------|-----------------|-----------------|-------------|
|--------|7--------------|--5--------------|-3---------------|-3-----------|


|--------------|-------------|------------|--------------|---------------|
|------0-------|------0------|------0---0-|------0------0|-----0---------|
|-2--2--2--2---|-2--2--2--2--|-4--4--4---4|-4--4--4---4--|-2--2--2--2----|
|---0-----0--0-|---0-----0--0|---0-----0--|---0------0---|---0-----0--0--|
|--------------|-------------|------------|--------------|---------------|
|-2------------|-2-----------|-3----------|-3------------|-2-------------|


|-------------|-----------------|----------------|----------------|
|----------7--|-------5-----5---|-2------0-----2-|----------------|
|--2---0---7--|-----4---4-----4-|-----0-----0---0|----------------|
|----------0--|---5-------5-----|---2-----2------|----------------|
|-------------|-4---------------|-1--------------|----------------|
|--2---0------|-----------------|----------------|----------------|


|-----------------|-5---------------|-------2-----2-|-2-h-3--2--2--------|
|-3------3-----3--|-------5-----5---|-----3---3-----|--------------3-----|
|-----4---4-----4-|-----6---6-----6-|---2-------2---|--------------------|
|---4-------4-----|---7-------7-----|-0-------------|-0------------------|
|-2---------------|-0---------------|---------------|--------------------|
|-----------------|-----------------|---------------|--------------------|


|---------------0-|-0-h-2--0--------|---------------|--------------------|
|--------0--------|-----------3--2--|-3----3----3---|-2----2----2--------|
|---4---4---4-----|-----------------|-----0--0----0-|-----0--0----0------|
|-----2-------2---|-----------------|---0------0----|---0------0---------|
|-----------------|-----------------|---------------|--------------------|
|--4--------------|-----------------|-3-------------|-3------------------|



|-----------------|--------------------||
|-3-----3----3----|-2----2----2--------||
|------0--0----0--|-----0--0----0------||
|---0-------0-----|---0------0---------||
|-----------------|--------------------||
|-3---------------|-3------------------||
            
Submit corrections

↑ Back to top | Delirious Tabs for Majesty. Lyrics for acoustic guitar and electric guitar. Tablatures and chords are parodies/interpretations of the original songs. You may use it for private study, scholarship, research or language learning purposes only