» » »

Deliriou5, Mezzanine Floor Tabs (ver.1)

Artists:  A B C D E F G H I J K L M N O P Q R S T U V W X Y Z # 

Mezzanine Floor Tabs (ver.1)

Deliriou5 Tabs
 Rating:
4/5 (4 votes)
Mezzanine Floor lessons Tabs too difficult? Try these video lessons and learn fast
                copyright: 1999
label: sparrow/furious? music
**this is the author's own work, there has been no duplication**

MEZZANINE FLOOR
(capo I)

INTRO:
B, D, B, D
D, A, G, C, A, G

VERSE1:
C
i'm on the mezzanine floor,
			    G	B, A, G
never been here before, no, no,
C
it's a lonely place,
			  G	B, A, G
but a house full of gra-a-ace,


CHORUS:
    C	 D	Em  D  G
and i'll get to hea-ea-ven,
     C	  D	 Em  D  G
yes, i'll get to hea-ea-ven,


VERSE2:
C
i'm at this bolted door,
				      G     B, A, G
but i'm comin' through without permission,
C
if i go they say how long,
			 G	B, A, G
if i stay there'll be no song,


CHORUS


BRIDGE:
F, C, G, D

F 		  C		    D 	   Em, C, D
   i'll get to heaven, i'll see you there

    C	 D	Em  D
and i'll get to hea-ven (4x)

(instrumental, same chords, 4x)

C	  D   Em            D
i'll find how-ow to see you there (same as chorus)

    C    D      Em  D
and i'll get to hea-ven (2x)

D
   through the sinner's door (spoken)

TAB (no Capo)


INTRO:
e---11------------| (guitar 2)
b-----13----------| (guitar 2)
G-----------------|
D----10-10p8-8-8\-| (guitar 1)
A-----------------|
E-----------------|


VERSE1:
guitar 1 same as intro during interlude between singing


CHORUS:
e-----------------------------|
b--6-6-8-8-9-9-11-11-13--13---|
G---6-6-8-8-8-8--8--8--13--13-|
D-----------------------------|
A-----------------------------|
E-----------------------------|


VERSE2:	(during singing) VERSE2: (during interlude)
e------             e---------------|
b------             b---------------|
G--8-8-             G---------8-8-8-|
D---8-8             D---10-10p8-8-8-|
A------             A---------------|
E------             E---------------|


CHORUS: (second time)
e---------------------------------------------|
b--6-6-8-8-9-9-11-11-13--13--16--16--16--16---|
G---6-6-8-8-8-8--8--8--13--13--13--13--13--13-|
D---------------------------------------------|
A---------------------------------------------|
E---------------------------------------------|


BRIDGE: (just chords strummed on acoustic)


OUTRO: (all the way through)
e---------------------|
b--6-6-8-8-9-9-11-11--|
G---6-6-8-8-8-8--8--8-|
D---------------------|
A---------------------|
E---------------------|
            
Submit corrections

comments powered by Disqus
↑ Back to top | Deliriou5 Tabs for Mezzanine Floor. Lyrics for acoustic guitar and electric guitar. Tablatures and chords are parodies/interpretations of the original songs. You may use it for private study, scholarship, research or language learning purposes only