» » »

I Could Sing Of Your Love Tabs (ver.1)

Artists:  A B C D E F G H I J K L M N O P Q R S T U V W X Y Z # 

I Could Sing Of Your Love Tabs (ver.1)

Deliriou5
Rating:
0/5 (0 votes)

Hard to play? Try these video lessons and learn fast.
                Song Title: Over The Mountains

E---------------2--4--7--0---2-4-----------------------------------
B------5-5-5-------------------------------------------------------
G------------------------------------------------------------------
D------------------------------------------------------------------
A------------------------------------------------------------------
E------------------------------------------------------------------

E---------------2--4--7---4-4--2--0--------------------------------
B------5-5-5-------------------------------------------------------
G------------------------------------------------------------------
D------------------------------------------------------------------
A------------------------------------------------------------------
E------------------------------------------------------------------

you can play this as much as you want. later days
            
Hard to play? Try these video lessons and learn fast. | Correct




comments powered by Disqus
↑ Back to top | Tablatures and chords are parodies/interpretations of the original songs. You may use it for private study, scholarship, research or language learning purposes only