» » »

Deli Creeps, Time Tabs (ver.1)

Artists:  A B C D E F G H I J K L M N O P Q R S T U V W X Y Z # 

Time Tabs (ver.1)

Deli Creeps Tabs
Rating:
4/5 (3 votes)
Time lessons Tabs too difficult? Try these video lessons and learn fast
                Time by Deli Creeps
Dawn Of The Deli Creeps
Written by Buckethead & Maximum Bob
Standard Tuning

e|-----------------|-----------------|------------------|-------------------||
b|------0----------|--------3--------|---------0--------|-----0-------------||
g|----3---1--------|-----4-----------|---4---3----1-----|-----3-4-3---------||
d|-----------------|-----------5-----|------------------|------------4------||
a|-----------------|-----------------|---2--------------|-------------------||
e|-4---------------|--4--------------|------------------|---4---------------||

e|-----------------|-----------------|------------------|-------------------||
b|------0----------|--------3--------|------------------|-------------------||
g|----3---1--------|-----4-----------|---4~-------------|-------------------||
d|-----------------|-----------5-----|---4~-------------|-------------------||
a|-----------------|-----------------|---2~-------------|-------------------||
e|-4---------------|--4--------------|------------------|-------------------||

e|-----------------|-----------------|------------------|-------------------||
b|------0----------|--------3--------|---------0--------|-----0-------------||
g|----3---1--------|-----4-----------|---4---3----1-----|-----3-4-3---------||
d|-----------------|-----------5-----|------------------|------------4------||
a|-----------------|-----------------|---2--------------|-------------------||
e|-4---------------|--4--------------|------------------|---4---------------||

e|-----------------|-----------------|------------------|-------------------||
b|------0----------|--------3--------|---------0--------|-----0-------------||
g|----3---1--------|-----4-----------|---4---3----1-----|-----3-4-3---------||
d|-----------------|-----------5-----|------------------|------------4------||
a|-----------------|-----------------|---2--------------|-------------------||
e|-4---------------|--4--------------|------------------|---4---------------||

e|-----------------||
b|-----------------||
g|----4~-----------||
d|----4~-----------||
a|----2~-----------||
e|-----------------||

e|-----------------|-----------------|------------------|-------------------||
b|------0----------|--------3--------|---------0--------|-----0-------------||
g|----3---1--------|-----4-----------|---4---3----1-----|-----3-4-3---------||
d|-----------------|-----------5-----|------------------|------------4------||
a|-----------------|-----------------|---2--------------|-------------------||
e|-4---------------|--4--------------|------------------|---4---------------||

e|-----------------|-----------------|------------------|-------------------||
b|------0----------|--------3--------|---------0--------|-----0-------------||
g|----3---1--------|-----4-----------|---4---3----1-----|-----3-4-3---------||
d|-----------------|-----------5-----|------------------|------------4------||
a|-----------------|-----------------|---2--------------|-------------------||
e|-4---------------|--4--------------|------------------|---4---------------||

e|-----------------||
b|-----------------||
g|----4~-----------||
d|----4~-----------||
a|----2~-----------||
e|-----------------||

e|-----------------|-----------------|------------------|-------------------||
b|------0----------|--------3--------|---------0--------|-----0-------------||
g|----3---1--------|-----4-----------|---4---3----1-----|-----3-4-3---------||
d|-----------------|-----------5-----|------------------|------------4------||
a|-----------------|-----------------|---2--------------|-------------------||
e|-4---------------|--4--------------|------------------|---4---------------||

e|-----------------|-----------------|---0~--------------|-------------------||
b|------0----------|--------3--------|---0~--------------|-------------------||
g|----3---1--------|-----4-----------|---1~--------------|-------------------||
d|-----------------|-----------5-----|---2~--------------|-------------------||
a|-----------------|-----------------|---2~--------------|-------------------||
e|-4---------------|--4--------------|---0~--------------|-------------------||

e|--4-4444-4-4--------|---2-2222-2-2---|--0--0000-0-0----------|----------------||
b|--4-4444-4-4--------|---2-2222-2-2---|--0--0000-0-0----------|----------------||
g|--5-5555-5-5--------|---3-3333-3-3---|--1--1111-1-1----------|----------------||
d|--6-6666-6-6--------|---4-4444-4-4---|--2--2222-2-2----------|----------------||
a|--6-6666-6-6--------|---4-4444-4-4---|--2--2222-2-2----------|--1--2--1-------||
e|--4-4444-4-4--------|---2-2222-2-2---|--0--0000-0-0----------|-----------2~---||
P.M. throughout chorus

e|--4-4444-4-4--------|---2-2222-2-2---|--0--0000-0-0----------|--0-----0---------||
b|--4-4444-4-4--------|---2-2222-2-2---|--0--0000-0-0----------|----0-----0-------||
g|--5-5555-5-5--------|---3-3333-3-3---|--1--1111-1-1----------|------1-----1-----||
d|--6-6666-6-6--------|---4-4444-4-4---|--2--2222-2-2----------|------------------||
a|--6-6666-6-6--------|---4-4444-4-4---|--2--2222-2-2----------|------------------||
e|--4-4444-4-4--------|---2-2222-2-2---|--0--0000-0-0----------|------------------||

e|--4-4444-4-4--------|---2-2222-2-2---|--0--0000-0-0----------|----------------||
b|--4-4444-4-4--------|---2-2222-2-2---|--0--0000-0-0----------|----------------||
g|--5-5555-5-5--------|---3-3333-3-3---|--1--1111-1-1----------|----------------||
d|--6-6666-6-6--------|---4-4444-4-4---|--2--2222-2-2----------|----------------||
a|--6-6666-6-6--------|---4-4444-4-4---|--2--2222-2-2----------|--1--2--1-------||
e|--4-4444-4-4--------|---2-2222-2-2---|--0--0000-0-0----------|-----------2~---||

e|--4-4444-4-4--------|---2-2222-2-2---|--0--0000-0-0----------|----0~--------------||
b|--4-4444-4-4--------|---2-2222-2-2---|--0--0000-0-0----------|----0~--------------||
g|--5-5555-5-5--------|---3-3333-3-3---|--1--1111-1-1----------|----1~--------------||
d|--6-6666-6-6--------|---4-4444-4-4---|--2--2222-2-2----------|----2~--------------||
a|--6-6666-6-6--------|---4-4444-4-4---|--2--2222-2-2----------|----2~--------------||
e|--4-4444-4-4--------|---2-2222-2-2---|--0--0000-0-0----------|----0~--------------||

e|-----------------|-----------------|------------------|-------------------||
b|------0----------|--------3--------|---------0--------|-----0-------------||
g|----3---1--------|-----4-----------|---4---3----1-----|-----3-4-3---------||
d|-----------------|-----------5-----|------------------|------------4------||
a|-----------------|-----------------|---2--------------|-------------------||
e|-4---------------|--4--------------|------------------|---4---------------||

e|-----------------|-----------------|------------------|-------------------||
b|------0----------|--------3--------|------------------|-------------------||
g|----3---1--------|-----4-----------|---4~-------------|-------------------||
d|-----------------|-----------5-----|---4~-------------|-------------------||
a|-----------------|-----------------|---2~-------------|-------------------||
e|-4---------------|--4--------------|------------------|-------------------||

e|-----------------|-----------------|------------------|-------------------||
b|------0----------|--------3--------|---------0--------|-----0-------------||
g|----3---1--------|-----4-----------|---4---3----1-----|-----3-4-3---------||
d|-----------------|-----------5-----|------------------|------------4------||
a|-----------------|-----------------|---2--------------|-------------------||
e|-4---------------|--4--------------|------------------|---4---------------||

e|-----------------|-----------------|------------------|-------------------||
b|------0----------|--------3--------|------------------|-------------------||
g|----3---1--------|-----4-----------|---4~-------------|-------------------||
d|-----------------|-----------5-----|---4~-------------|-------------------||
a|-----------------|-----------------|---2~-------------|-------------------||
e|-4---------------|--4--------------|------------------|-------------------||

e|-----------------|-----------------|------------------|-------------------||
b|------0----------|--------3--------|---------0--------|-----0-------------||
g|----3---1--------|-----4-----------|---4---3----1-----|-----3-4-3---------||
d|-----------------|-----------5-----|------------------|------------4------||
a|-----------------|-----------------|---2--------------|-------------------||
e|-4---------------|--4--------------|------------------|---4---------------||

e|-----------------|-----------------|---0~--------------|-------------------||
b|------0----------|--------3--------|---0~--------------|-------------------||
g|----3---1--------|-----4-----------|---1~--------------|-------------------||
d|-----------------|-----------5-----|---2~--------------|-------------------||
a|-----------------|-----------------|---2~--------------|-------------------||
e|-4---------------|--4--------------|---0~--------------|-------------------||

e|--4-4444-4-4--------|---2-2222-2-2---|--0--0000-0-0----------|----------------||
b|--4-4444-4-4--------|---2-2222-2-2---|--0--0000-0-0----------|----------------||
g|--5-5555-5-5--------|---3-3333-3-3---|--1--1111-1-1----------|----------------||
d|--6-6666-6-6--------|---4-4444-4-4---|--2--2222-2-2----------|----------------||
a|--6-6666-6-6--------|---4-4444-4-4---|--2--2222-2-2----------|--1--2--1-------||
e|--4-4444-4-4--------|---2-2222-2-2---|--0--0000-0-0----------|-----------2~---||
P.M. throughout chorus

e|--4-4444-4-4--------|---2-2222-2-2---|--0--0000-0-0----------|--0-----0---------||
b|--4-4444-4-4--------|---2-2222-2-2---|--0--0000-0-0----------|----0-----0-------||
g|--5-5555-5-5--------|---3-3333-3-3---|--1--1111-1-1----------|------1-----1-----||
d|--6-6666-6-6--------|---4-4444-4-4---|--2--2222-2-2----------|------------------||
a|--6-6666-6-6--------|---4-4444-4-4---|--2--2222-2-2----------|------------------||
e|--4-4444-4-4--------|---2-2222-2-2---|--0--0000-0-0----------|------------------||

e|--4-4444-4-4--------|---2-2222-2-2---|--0--0000-0-0----------|----------------||
b|--4-4444-4-4--------|---2-2222-2-2---|--0--0000-0-0----------|----------------||
g|--5-5555-5-5--------|---3-3333-3-3---|--1--1111-1-1----------|----------------||
d|--6-6666-6-6--------|---4-4444-4-4---|--2--2222-2-2----------|----------------||
a|--6-6666-6-6--------|---4-4444-4-4---|--2--2222-2-2----------|--1--2--1-------||
e|--4-4444-4-4--------|---2-2222-2-2---|--0--0000-0-0----------|-----------2~---||

e|--4-4444-4-4--------|---2-2222-2-2---|--0--0000-0-0----------|----0~--------------||
b|--4-4444-4-4--------|---2-2222-2-2---|--0--0000-0-0----------|----0~--------------||
g|--5-5555-5-5--------|---3-3333-3-3---|--1--1111-1-1----------|----1~--------------||
d|--6-6666-6-6--------|---4-4444-4-4---|--2--2222-2-2----------|----2~--------------||
a|--6-6666-6-6--------|---4-4444-4-4---|--2--2222-2-2----------|----2~--------------||
e|--4-4444-4-4--------|---2-2222-2-2---|--0--0000-0-0----------|----0~--------------||

e|----------------------||--------------------|---------------------|------------------------|
b|----------------------||--------------------|---------------------|------------------------|
g|----------------------||--------------------|---------------------|------------------------|
d|----------------------||--------------------|---------------------|------------------------|
a|----------------------||----1----2---4------|----1----2---4-------|-----------7-----6------|
e|---x/12s0-------------||--0----0---0----0~--|--0----0---0----0~---|--4--7--4-----4-----4~--|
                   P.M.   |-|  |-| |-|  |-|    |-|  |-| |-|   |-|     |-|   |-|   |-| 

e|-----------------------|
b|-----------------------|
g|-----------------------|
d|-----------------------| repeat 3x
a|-----------7-----6-----|
e|--4--7--4-----4-----4~-|

e|----------------|-2-2-2~---------|-----6--7-------|----------------||
b|--4-4-4--2-2-2~-|---------4p2h4--|--4-------7~----|---4-4-5--------||
g|----------------|----------------|----------------|---------4~-----||
d|----------------|----------------|----------------|----------------||
a|----------------|----------------|----------------|----------------||
e|----------------|----------------|----------------|----------------||

e|----------------|----------------|----------------|----------------||
b|----------------|--11----11------|--12----11------|--12-----11-----||
g|--3--3s4-3------|--13b15-13b15---|--14b16-13b15---|--14b16--13b15--||
d|------------4s6-|----------------|----------------|----------------||
a|----------------|----------------|----------------|----------------||
e|----------------|----------------|----------------|----------------||

e|----------------|----------------|----------------|----------------||
b|--12-----11-----|--12-----14-----|--12-----11-----|--11-----11-----||
g|--14b16--13b15--|--14b16--16b18--|--14b16--13b15--|--13b15--13b15--||
d|----------------|----------------|----------------|----------------||
a|----------------|----------------|----------------|----------------||
e|----------------|----------------|----------------|----------------||

e|----------------|----------------|----------------|-----------17b19-17b19----||
b|-12--14--16--16-|-16--16--16~----|-14p12-12-------|-----12-------------------||
g|----------------|----------------|-----------13-13|--13----13----------------||
d|----------------|----------------|----------------|--------------------------||
a|----------------|----------------|----------------|--------------------------||
e|----------------|----------------|----------------|--------------------------||

e|--4-4444-4-4--------|---2-2222-2-2---|--0--0000-0-0----------|----------------||
b|--4-4444-4-4--------|---2-2222-2-2---|--0--0000-0-0----------|----------------||
g|--5-5555-5-5--------|---3-3333-3-3---|--1--1111-1-1----------|----------------||
d|--6-6666-6-6--------|---4-4444-4-4---|--2--2222-2-2----------|----------------||
a|--6-6666-6-6--------|---4-4444-4-4---|--2--2222-2-2----------|--1--2--1-------||
e|--4-4444-4-4--------|---2-2222-2-2---|--0--0000-0-0----------|-----------2~---||

e|--4-4444-4-4--------|---2-2222-2-2---|--0--0000-0-0----------|----0~--------------||
b|--4-4444-4-4--------|---2-2222-2-2---|--0--0000-0-0----------|----0~--------------||
g|--5-5555-5-5--------|---3-3333-3-3---|--1--1111-1-1----------|----1~--------------||
d|--6-6666-6-6--------|---4-4444-4-4---|--2--2222-2-2----------|----2~--------------||
a|--6-6666-6-6--------|---4-4444-4-4---|--2--2222-2-2----------|----2~--------------||
e|--4-4444-4-4--------|---2-2222-2-2---|--0--0000-0-0----------|----0~--------------||
                                                                   repeat E chord 
                                                                16x with kill switch

e|--4-4444-4-4--------|---2-2222-2-2---|--0--0000-0-0----------|----------------||
b|--4-4444-4-4--------|---2-2222-2-2---|--0--0000-0-0----------|----------------||
g|--5-5555-5-5--------|---3-3333-3-3---|--1--1111-1-1----------|----------------||
d|--6-6666-6-6--------|---4-4444-4-4---|--2--2222-2-2----------|----------------||
a|--6-6666-6-6--------|---4-4444-4-4---|--2--2222-2-2----------|--1--2--1-------||
e|--4-4444-4-4--------|---2-2222-2-2---|--0--0000-0-0----------|-----------2~---||
P.M. throughout chorus

e|--4-4444-4-4--------|---2-2222-2-2---|--0--0000-0-0----------|--0-----0---------||
b|--4-4444-4-4--------|---2-2222-2-2---|--0--0000-0-0----------|----0-----0-------||
g|--5-5555-5-5--------|---3-3333-3-3---|--1--1111-1-1----------|------1-----1-----||
d|--6-6666-6-6--------|---4-4444-4-4---|--2--2222-2-2----------|------------------||
a|--6-6666-6-6--------|---4-4444-4-4---|--2--2222-2-2----------|------------------||
e|--4-4444-4-4--------|---2-2222-2-2---|--0--0000-0-0----------|------------------||

e|--4-4444-4-4--------|---2-2222-2-2---|--0--0000-0-0----------|----------------||
b|--4-4444-4-4--------|---2-2222-2-2---|--0--0000-0-0----------|----------------||
g|--5-5555-5-5--------|---3-3333-3-3---|--1--1111-1-1----------|----------------||
d|--6-6666-6-6--------|---4-4444-4-4---|--2--2222-2-2----------|----------------||
a|--6-6666-6-6--------|---4-4444-4-4---|--2--2222-2-2----------|--1--2--1-------||
e|--4-4444-4-4--------|---2-2222-2-2---|--0--0000-0-0----------|-----------2~---||

e|--4-4444-4-4--------|---2-2222-2-2---|--0--0000-0-0----------|--0-----0---------||
b|--4-4444-4-4--------|---2-2222-2-2---|--0--0000-0-0----------|----0-----0-------||
g|--5-5555-5-5--------|---3-3333-3-3---|--1--1111-1-1----------|------1-----1-----||
d|--6-6666-6-6--------|---4-4444-4-4---|--2--2222-2-2----------|------------------||
a|--6-6666-6-6--------|---4-4444-4-4---|--2--2222-2-2----------|------------------||
e|--4-4444-4-4--------|---2-2222-2-2---|--0--0000-0-0----------|------------------||

e|--4-4444-4-4--------|---2-2222-2-2---|--0--0000-0-0----------|----------------||
b|--4-4444-4-4--------|---2-2222-2-2---|--0--0000-0-0----------|----------------||
g|--5-5555-5-5--------|---3-3333-3-3---|--1--1111-1-1----------|----------------||
d|--6-6666-6-6--------|---4-4444-4-4---|--2--2222-2-2----------|----------------||
a|--6-6666-6-6--------|---4-4444-4-4---|--2--2222-2-2----------|--1--2--1-------||
e|--4-4444-4-4--------|---2-2222-2-2---|--0--0000-0-0----------|-----------2~---||

e|--4-4444-4-4--------|---2-2222-2-2---|--0--0000-0-0----------|--0-----0---------||
b|--4-4444-4-4--------|---2-2222-2-2---|--0--0000-0-0----------|----0-----0-------||
g|--5-5555-5-5--------|---3-3333-3-3---|--1--1111-1-1----------|------1-----1-----||
d|--6-6666-6-6--------|---4-4444-4-4---|--2--2222-2-2----------|------------------||
a|--6-6666-6-6--------|---4-4444-4-4---|--2--2222-2-2----------|------------------||
e|--4-4444-4-4--------|---2-2222-2-2---|--0--0000-0-0----------|------------------||

e|-----------------|-----------------|------------------|-------------------||
b|------0----------|--------3--------|---------0--------|-----0-------------||
g|----3---1--------|-----4-----------|---4---3----1-----|-----3-4-3---------||
d|-----------------|-----------5-----|------------------|------------4------||
a|-----------------|-----------------|---2--------------|-------------------||
e|-4---------------|--4--------------|------------------|---4---------------||

e|-----------------|-----------------|------------------|---------------6~~----||
b|------0----------|--------3--------|------------------|------0---0-----------||
g|----3---1--------|-----4-----------|---4~-------------|--------3-------------||
d|-----------------|-----------5-----|---4~-------------|---6--------6---------||
a|-----------------|-----------------|---2~-------------|----------------------||
e|-4---------------|--4--------------|------------------|-4--------------------||
            
Submit corrections

comments powered by Disqus
↑ Back to top | Deli Creeps Tabs for Time. Lyrics for acoustic guitar and electric guitar. Tablatures and chords are parodies/interpretations of the original songs. You may use it for private study, scholarship, research or language learning purposes only