» » »

Deli Creeps, Grampa Bill Tabs (ver.1)

Artists:  A B C D E F G H I J K L M N O P Q R S T U V W X Y Z # 

Grampa Bill Tabs (ver.1)

Deli Creeps Tabs
Rating:
5/5 (1 vote)
Hard to play? Try these video lessons and learn fast.
                (Intro)
There are so little Deli Creeps tabs,
so I decided that I should try to tab them
so, here it goes..
If you have any suggestions for the solo or anything, please tell me, i will try and 
this tab as updated as possible.

|---------------------------------------------------------------------------|
|---------------------------------------------------------------------------|
|---------------------------------------------------------------------------|
|-5h-6-6--x-x--x-x-x--x-x---------------------------------------------------|
|-5h-6-6--x-x--x-x-x--x-x--(repeat a few times)-----------------------------|
|-5h-6-6--x-x--x-x-x--x-x---------------------------------------------------|

The next part goes
something like this...

|---------------------------------------------------------------------------|
|---------------------------------------------------------------------------|
|---------------------------------------------------------------------------|
|-2-2-0-2---2-2-0-3---------------------------------------------------------|
|-2-2-0-2---2-2-0-3---------------------------------------------------------|
|-2-2-0-2---2-2-0-3---------------------------------------------------------|

During the verse, you can
hear Buckethead playing something quietly
in the background, it goes something like this.


\---LET-EACH-NOTE-RING----\---------------------------------------------------|
|-----5--4--------5-----4-----------------------------------------------------|
|-----5--4---3--5---5---4-----------------------------------------------------|
|----------2----------2-------------------------------------------------------|
|-----------------------------------------------------------------------------|
|-----------------------------------------------------------------------------|
|-----------------------------------------------------------------------------|

Solo:
|---------------------------------------------------------------------------|
|--13--15-13-13---12-13-12--------------------------------------------------|
|11--11---------------------12-12-10----10-12-10----12h13p12-10-12----------|
|------------------------------------12----------12----------------12-------|
|---------------------------------------------------------------------------|
|---------------------------------------------------------------------------|


|------------------------------------xxxx-17-15-14h15p14--------------------|
|---------------------------x-x-x-x----------------------15-----------------|
|---------11-x-x-x-12-x-x-x-------------------------------------------------|
|12-x-x-x-------------------------------------------------------------------|
|---------------------------------------------------------------------------|
|---------------------------------------------------------------------------|

|--17-15-14-15-14-----------------------------------------------------------|
|-----------------17-15-14-15-14--------------------------------15--15------|
|--------------------------------17-15-14-15-14-----------------------------|
|-----------------------------------------------17-15-14-15-14--------------|
|---------------------------------------------------------------------------|
|---------------------------------------------------------------------------|
            

comments powered by Disqus
↑ Back to top | Deli Creeps Tabs for Grampa Bill. Lyrics for acoustic guitar and electric guitar. Tablatures and chords are parodies/interpretations of the original songs. You may use it for private study, scholarship, research or language learning purposes only