>
 >
Flesh For The Beast

Flesh For The Beast Guitar Tabs

Deli Creeps - Flesh For The Beast chords, tabs, tablatures, lyrics

Guitar lessons | Add/correct | Request | Top 50 tabs Artists:  A B C D E F G H I J K L M N O P Q R S T U V W X Y Z 0-9

Flesh For The Beast Guitar Tabs – Deli Creeps

CD, Sheet music, Poster

Do you like Flesh For The Beast? Share with your friends now
Tabs
Deli Creeps

Flesh for the Beast

Intro
c---------------------------|
g---------------------------|
d#--------------------------|
a#-6664h56664h56664h56664h5-x4
f---------------------------|
C---------------------------|

Main riff
c--------------------------------------------------------|
g--------------------------------------------------------|
d#-------------------------------------------------------|x5
a#-------------------------------------------------------|
f--2-3-2-3-6--2-3-2-3-6--2-3-6--2-3-2-3-6--2-3-2-3-6-8-8-|
C--0-1-0-1-4--0-1-0-1-4--0-1-4--0-1-0-1-4--0-1-0-1-4-6-6-|

fast riff
c----------------------------|
g----------------------------|
d#---------------------------|
a#-------666------986-666----|x4
f--555888---555888-------888-|
C----------------------------|

bridge
c-----------|
g-----------|
d#----------|
a#-2-2--2-2-|x16
f--2-2--2-2-|
c--0-0--0-0-|

chorus
c------------------------------------------|
g------------------------------------------|
d#-----------------------------------------|
a#---------------------------------5-/10-9-|x6
f----4---4---4---4---4---4---4---4-5-/10-9-|
c--0h2-0h2-0h2-0h2-0h2-0h2-0h2-0h2-3-/8--7-|

Main riff
c--------------------------------------------------------|
g--------------------------------------------------------|
d#-------------------------------------------------------|x6
a#-------------------------------------------------------|
f--2-3-2-3-6--2-3-2-3-6--2-3-6--2-3-2-3-6--2-3-2-3-6-8-8-|
C--0-1-0-1-4--0-1-0-1-4--0-1-4--0-1-0-1-4--0-1-0-1-4-6-6-|

fast riff
c----------------------------|
g----------------------------|
d#---------------------------|
a#-------666------986-666----|x4
f--555888---555888-------888-|
C----------------------------|

bridge
c-----------|
g-----------|
d#----------|
a#-2-2--2-2-|x16
f--2-2--2-2-|
c--0-0--0-0-|

chorus
c------------------------------------------|
g------------------------------------------|
d#-----------------------------------------|
a#---------------------------------5-/10-9-|x4
f----4---4---4---4---4---4---4---4-5-/10-9-|
c--0h2-0h2-0h2-0h2-0h2-0h2-0h2-0h2-3-/8--7-|

solo (!!!!=killswitch)
c--------------------------------------------------|
g--16!!!!17!!!!------16!!!!------------------------|
d#-------------18!!!!------16!!!!15!!!!15h16p15----|
a#---------------------------------------------18~-|
f--------------------------------------------------|
c--------------------------------------------------|

whammy section ( /\ =whammy up 1 octave, then back down)
c--17/\--19/\--20/\---22-20p19p17h19h20r17-|
g------17----17----17----------------------|
d#-----------------------------------------|
a#-----------------------------------------|
f------------------------------------------|
c------------------------------------------|


c--15b17r15p12-----------------------------------|
g-------------15-13---1313-----------8-----------|
d#------------------14----14~12/--7b9~9r7p5-5h7--|
a#-----------------------------------------7---7-|
f------------------------------------------------|
c------------------------------------------------|

fast section
c---------------7810/1210812108-----121081412101514121715141917152017191715201715191715-------|
g-----------7810---------------12108---------------------------------------------------19b22~-|
d#-9b11r9-79----------------------------------------------------------------------------------|
a#--------------------------------------------------------------------------------------------|
f---------------------------------------------------------------------------------------------|
c---------------------------------------------------------------------------------------------|

more whammy
c--17/\17~-19/\19~-20/\20~-22/\22~-20/\19/\17/\-22b24/****(24)****~-|
g-----------------------------------------------------****(24)****~-|
d#------------------------------------------------------------------|
a#------------------------------------------------------------------|
f-------------------------------------------------------------------|
c-------------------------------------------------------------------|

killswitch and whammy
c-----------------------------------------------------|
g-------slowly go up 1 octave, then down again--------|
d#-18b19!!!!!!!!!!!!!!!!!!!!!!!!!!!!!!!!!!!!!!19b21~~-
a#----------------------------------------------------|
f-----------------------------------------------------|
c-----------------------------------------------------|

                       wank on the whammy pedal here
c-------------6~~~-0h6p0h7p0h6p0h7p0h6p0h7p0h6p0h7p0--|
g-----------------------------------------------------|
d#-7b9~~8-7-6-----------------------------------------|
a#----------------------------------------------------|
f-----------------------------------------------------|
c-----------------------------------------------------|

im not even going to try to tab the next part, just do a run
chromatically from one string to the next, when you get to the high c
just play a 3 note pattern and move it up 1 fret at a time,
using the whammy pedal every so often.then whammy up as high as possible
and repeatedly press the killswitch.

solo out
c------------------------------------------|
g------------------------------------------|
d#-----------------------------------------|
a#---------------------------------5-/10-9-|
f----4---4---4---4---4---4---4---4-5-/10-9-|
c--0h2-0h2-0h2-0h2-0h2-0h2-0h2-0h2-3-/8--7-|

outro
c-------------------------------------|
g-------------------------------------|
d#------------------------------------|
a#------------------------------------|x4
f-------------------------------------|
c--0~~0~~0~~0~0~0~0~~0~~0~~3~~3/8\7~~-|





Comments


Popular Deli Creeps tabs & chords
Binge And Grab Tabs
Can I Have A Ride Tabs
Chores Intro Tabs
Grampa Bill Intro Tabs
Time Tabs


Song lyrics



↑ Back to top | Tablatures and chords are parodies/interpretations of the original songs. You may use it for private study, scholarship, research or language learning purposes only
© 2014 AZChords.com Contact us | Privacy policy | DMCA | Add/correct tabs | Request tabs | Top 50 tabs