» » »

Chores Tabs (ver.1)

Artists:  A B C D E F G H I J K L M N O P Q R S T U V W X Y Z # 

Chores Tabs (ver.1)

Deli Creeps
Rating:
4/5 (1 vote)

Hard to play? Try these video lessons and learn fast.
                (Intro)
Tuned down 1 step

|---------------------------------------------------------------------------|
|---------------------------------------------------------------------------|
|---------------------------------------------------------------------------|
|-x--x--x-x-x--7--x--x--x-x-x---10--9--x--x--x--7----10--9---7---9----------|
|-x--x--x-x-x--7--x--x--x-x-x---10--9--x--x--x--7----10--9---7---9-(repeat)-|
|-x--x--x-x-x--5--x--x--x-x-x---8---7--x--x--x--5----8---7---5---7----------|


|---------------------------------------------------------------------------|
|---------------------------------------------------------------------------|
|----------5--4-------------------------------------------------------------|
|-2--4--5--5--4----2--4--5--------------------------------------------------|
|-2--4--5--3--2----2--4--5--------------------------------------------------|
|-0--2--3----------0--2--3--------------------------------------------------|


|---------------------------------------------------------------------------|
|---------------------------------------------------------------------------|
|---666-4-6-3-6-2-6-4-6-3-6-2-6----666-4-6-3-6-2-----11-9-7--------11-11----|
|-4------------------------------4--------------------------11-9-7----------|
|---------------------------------------------------------------------------|
|---------------------------------------------------------------------------|


|---------------------------------------------------------------------------|
|---------------------------------------------------------------------------|
|---666-4-6-3-6-2---------------------666-4-6-3-6-2-------------------------|
|-4----------------6-666-7-6--------4----------------6h7-6------------------|
|-----------------------------7-7--------------------------7-7--------------|
|---------------------------------------------------------------------------|
            
Hard to play? Try these video lessons and learn fast. | Correct




comments powered by Disqus
↑ Back to top | Tablatures and chords are parodies/interpretations of the original songs. You may use it for private study, scholarship, research or language learning purposes only