>
 >
Can I Have A Ride

Can I Have A Ride Guitar Tabs

Deli Creeps - Can I Have A Ride chords, tabs, tablatures, lyrics

Guitar lessons | Add/correct | Request | Top 50 tabs Artists:  A B C D E F G H I J K L M N O P Q R S T U V W X Y Z 0-9

Can I Have A Ride Guitar Tabs – Deli Creeps

CD, Sheet music, Poster

Do you like Can I Have A Ride? Share with your friends now
Tabs
Can I Have a Ride?



Intro
c-----------------------------------------------------------|
g-----------------------------------------------------------|
d#----------------------------------------------------------|
a#--------------------------------4---5---4-----------------| x2
f-2---8---5---3---2---5---7---3---2222333322225---7---3-----|
C-00006666333311110000333355551111------------333355551111--|


c------------------------------------------------------------|
g------------------------------------------------------------|
d#-----------------------------------------------------------|
a#---------------------------------4---5---4-----------------|
f--2---8---5---3---2---5---7---3---2-223---2---5---7---3-3-2-|
C--0-006---3---1---0-003---5---1---------------3---5-551-1-0-|


c----------------------------------------------------------------|
g----------------------------------------------------------------|
d#---------------------------------------------------------------|
a#----------------------------------4---5---4--------------------|
f--/2---8---5---3---2---5---7---3---2-223---2---5---7---3-3------|
C--/0-006---3---1---0-003---5---1---------------3---5-551-1-1~~~-|

verse
c-------------|
g-------------|
d#------------|
a#------------|x2
f--2-5-8~-5-2-|
C--0-3-6~-3-0-|

pop goes the soft spot
c--------------------------------|
g--0-55-77-9-5-0-55-77-9/12\9-5--|
d#-------------------------------|
a#-------------------------------|
f--------------------------------|
C--------------------------------|

c-------------|
g-------------|
d#------------|
a#------------|x2
f--2-5-8~-5-2-|
C--0-3-6~-3-0-|

pre chorus
c-----------------------------|
g-----------------------------|
d#----------------------------|
a#----------------------------|x6
f--/4-2-4-2-4~-4-2-5-4~-2-x-x-|
C--/2-0-2-0-2~-2-0-3-2~-0-x-x-|

chorus
c-----------------|
g-----------------|
d#------------2-4-|
a#-6-6---4-2h4----|x4
f--6--6--4--------|
C--4---4-2--------|

chorus out
c-----------------------------|
g-----------------------------|
d#----------------------------|
a#----------------------------|x4
f--/4-2-4-2-4~-4-2-5-4~-2-x-x-|
C--/2-0-2-0-2~-2-0-3-2~-0-x-x-|

verse
c------------|
g------------|
d#-----------|
a#-----------|x3
f-2-5-8~-5-2-|
C-0-3-6~-3-0-|

solo
c--------------------------------------------------------------|
g--/14~-14-------16--14---------------------------14-14--16-16-|
d#-/15~---15-14~---15--14b15r14-12-----12---12/15--------------|
a#--------------------------------14-14--14--------------------|
f--------------------------------------------------------------|
C--------------------------------------------------------------|

c--19p16--16b18r16-14---14----|
g--------------------16-------|
d#------------------------13/-|
a#----------------------------|
f-----------------------------|
C-----------------------------|

c--x-x-x----------------------------------------21-----------------------------x-x-|
g--x-x-x--------------------------------19-20b23--23-23-23r20-20b22r20-19~-19~-x-x-|
d#---------20p18-------------------18-20---------------------------------------x-x-|
a#--------------20-20p18------18-20------------------------------------------------|
f-----------------------21p18------------------------------------------------------|
C----------------------------------------------------------------------------------|

c------------------------------------------------------------------|
g-----------16-16-16-19-19-19p18p16--------------------------------|
d#---------------------------------------------18\17----17/18---18-|
a#-18-18-18------------------------18-21-21-21-21\18-18-18/21-21---|
f------------------------------------------------------------------|
C------------------------------------------------------------------|

c----------------------------------------------------------------------|
g--19-19-19p18p16--19-19-19p18p16-----19-------------------------------|
d#-------------------------------18b20--20r18-16-----------------------|
a#---------------18-----------------------------18-16------------------|
f----------------------------------------------------18-16-18-16-------|
C----------------------------------------------------------------19-16-|

c-------------------------16-----|
g---------------------------19~--|
d#----16-18-15~-16-/15~-16-------|
a#-/18---------------------------|
f--------------------------------|
C--------------------------------|

c--16161818------------21211919181816161818------------------------------|
g----------191919161616--------------------191919161616------------------|
d#-----------------------------------------------------181818161616------|
a#-----------------------------------------------------------------------|
f-------------------------------------------------------------------18~~-|
C------------------------------------------------------------------------|

solo out
c-----------------------------|
g-----------------------------|
d#----------------------------|
a#----------------------------|x4
f--/4-2-4-2-4~-4-2-5-4~-2-x-x-|
C--/2-0-2-0-2~-2-0-3-2~-0-x-x-|

chorus
c-----------------|
g-----------------|
d#------------2-4-|
a#-6-6---4-2h4----|x4
f--6--6--4--------|
C--4---4-2--------|

chorus out
c-----------------------------|
g-----------------------------|
d#----------------------------|x9
a#----------------------------|
f--/4-2-4-2-4~-4-2-5-4~-2-x-x-|
C--/2-0-2-0-2~-2-0-3-2~-0-x-x-|

c-------------|
g-------------|
d#------------|
a#------------|
f--2-5-8~-5-2-|
C--0-3-6~-3-0-|





Comments


Popular Deli Creeps tabs & chords
Binge And Grab Tabs
Chores Intro Tabs
Flesh For The Beast Tabs
Grampa Bill Intro Tabs
Time Tabs


Song lyrics



↑ Back to top | Tablatures and chords are parodies/interpretations of the original songs. You may use it for private study, scholarship, research or language learning purposes only
© 2014 AZChords.com Contact us | Privacy policy | DMCA | Add/correct tabs | Request tabs | Top 50 tabs