>
 >
Binge And Grab

Binge And Grab Guitar Tabs

Deli Creeps - Binge And Grab chords, tabs, tablatures, lyrics

Guitar lessons | Add/correct | Request | Top 50 tabs Artists:  A B C D E F G H I J K L M N O P Q R S T U V W X Y Z 0-9

Binge And Grab Guitar Tabs – Deli Creeps

CD, Sheet music, Poster

Do you like Binge And Grab? Share with your friends now
Tabs
Intro

||---------------------|-----------------|-----------------|------------------|
||o--------------------|-----------------|-----------------|------------------|
||---------------------|-----------------|-----------------|---6---8---9-8-6--|
||--------9---10h11--9-|-4-----4---7-6-4-|-2-----9---6---7-|-----7---7--------|
||o-2---7---7----------|-2---2---2-------|-0---0---0---0---|-0----------------|
||--0------------------|-----------------|-----------------|------------------|

||---------------------|-----------------|----------0------|----------0-------||
||---------5---7--5----|-------4---5--4--|------4-----4----|------4----------o||
||---6---6-6---6--6----|-4---4-4---4--4--|--------2-----2--|--------2---------||
||---6---6-6---6--6----|-4---4-4---4--4--|-2--2------------|-2--2-------6-4---||
||---4---4-------------|-2---2-----------|-0---------------|-0----------6-4--o||
||---------------------|-----------------|-----------------|------------4-2---|| X2


Verse

  Girl came over, to let me have a binge. Ill get that girl you know, ill binge until she twitches
||---------------------|-----------------|-----------------|------------------|
||o--------------------|-----------------|-----------------|------------------|
||---------------------|-----------------|-----------------|---6---8---9-8-6--|
||--------9---10h11--9-|-4-----4---7-6-4-|-2-----9---6---7-|-----7---7--------|
||o-2---7---7----------|-2---2---2-------|-0---0---0---0---|-0----------------|
||--0------------------|-----------------|-----------------|------------------|

      Ooooh yeah         gotta give that girl a binge and grab
||---------------------|-----------------|----------0------|----------0-------||
||---------5---7--5----|-------4---5--4--|------4-----4----|------4----------o||
||---6---6-6---6--6----|-4---4-4---4--4--|--------2-----2--|--------2---------||
||---6---6-6---6--6----|-4---4-4---4--4--|-2--2------------|-2--2-------6-4---||
||---4---4-------------|-2---2-----------|-0---------------|-0----------6-4--o||
||---------------------|-----------------|-----------------|------------4-2---||

That's the one for me, i must say, She just keeps on looking, walking, talking, and a 
my way
||---------------------|-----------------|-----------------|------------------|
||o--------------------|-----------------|-----------------|------------------|
||---------------------|-----------------|-----------------|---6---8---9-8-6--|
||--------9---10h11--9-|-4-----4---7-6-4-|-2-----9---6---7-|-----7---7--------|
||o-2---7---7----------|-2---2---2-------|-0---0---0---0---|-0----------------|
||--0------------------|-----------------|-----------------|------------------|

      Ooooh yeah         gotta give that girl a binge and grab
||---------------------|-----------------|----------0------|----------0-------||
||---------5---7--5----|-------4---5--4--|------4-----4----|------4----------o||
||---6---6-6---6--6----|-4---4-4---4--4--|--------2-----2--|--------2---------||
||---6---6-6---6--6----|-4---4-4---4--4--|-2--2------------|-2--2-------6-4---||
||---4---4-------------|-2---2-----------|-0---------------|-0----------6-4--o||
||---------------------|-----------------|-----------------|------------4-2---||


Chorus

                           i like to walk yeah i doooo___________
|-------------|----------------|-------------|-------------------|
|-------------|----------------|-------------|-------------------|
|-------------|----------------|-------------|---------2---------|
|-6---------4-|---6------------|-6-----------|-----1-2-2---------|
|-4-x-x-x-x-4-|---4---4----0-2-|-4-x-x-x-x-2-|-(2)-----0--0-2-0--|
|-------------|----------------|-------------|-------------------|

               thats the way i like it baby
|-------------|----------------|-------------|
|-------------|----------------|-------------|
|-------------|----------------|-------------|
|-6---------4-|---6------------|-6-----------|
|-4-x-x-x-x-4-|---4---4----0-2-|-4-x-x-x-x-2-|
|-------------|----------------|-------------|


 Ooooooooh_____________________________ (2/4)
|------------0-----|-0-----0----(0)----|---------||
|--------------4---|---4---4----(4)----|---------||
|---------2------4-|-----4-4----(4)----|---------||
|-----1-2-2--------|-------------------|-----5-4-||
|-(2)-----0--------|-------------------|-----5-4-||
|------------------|-------------------|-----3-2-||


Verse

  Girl came over, to let me have a binge. Ill get that girl you know, ill binge until she twitches
||---------------------|-----------------|-----------------|------------------|
||o--------------------|-----------------|-----------------|------------------|
||---------------------|-----------------|-----------------|---6---8---9-8-6--|
||--------9---10h11--9-|-4-----4---7-6-4-|-2-----9---6---7-|-----7---7--------|
||o-2---7---7----------|-2---2---2-------|-0---0---0---0---|-0----------------|
||--0------------------|-----------------|-----------------|------------------|

      Ooooh yeah         gotta give that girl a binge and grab
||---------------------|-----------------|----------0------|----------0-------||
||---------5---7--5----|-------4---5--4--|------4-----4----|------4----------o||
||---6---6-6---6--6----|-4---4-4---4--4--|--------2-----2--|--------2---------||
||---6---6-6---6--6----|-4---4-4---4--4--|-2--2------------|-2--2-------6-4---||
||---4---4-------------|-2---2-----------|-0---------------|-0----------6-4--o||
||---------------------|-----------------|-----------------|------------4-2---||

That's the one for me, i must say, She just keeps on looking, walking, talking, and a 
my way
||---------------------|-----------------|-----------------|------------------|
||o--------------------|-----------------|-----------------|------------------|
||---------------------|-----------------|-----------------|---6---8---9-8-6--|
||--------9---10h11--9-|-4-----4---7-6-4-|-2-----9---6---7-|-----7---7--------|
||o-2---7---7----------|-2---2---2-------|-0---0---0---0---|-0----------------|
||--0------------------|-----------------|-----------------|------------------|

      Ooooh yeah         gotta give that girl a binge and grab
||---------------------|-----------------|----------0------|----------0-------||
||---------5---7--5----|-------4---5--4--|------4-----4----|------4----------o||
||---6---6-6---6--6----|-4---4-4---4--4--|--------2-----2--|--------2---------||
||---6---6-6---6--6----|-4---4-4---4--4--|-2--2------------|-2--2-------6-4---||
||---4---4-------------|-2---2-----------|-0---------------|-0----------6-4--o||
||---------------------|-----------------|-----------------|------------4-2---||


Chorus
                           i like to walk yeah i doooo___________
|-------------|----------------|-------------|-------------------|
|-------------|----------------|-------------|-------------------|
|-------------|----------------|-------------|---------2---------|
|-6---------4-|---6------------|-6-----------|-----1-2-2---------|
|-4-x-x-x-x-4-|---4---4----0-2-|-4-x-x-x-x-2-|-(2)-----0--0-2-0--|
|-------------|----------------|-------------|-------------------|

               thats the way i like it baby
|-------------|----------------|-------------|
|-------------|----------------|-------------|
|-------------|----------------|-------------|
|-6---------4-|---6------------|-6-----------|
|-4-x-x-x-x-4-|---4---4----0-2-|-4-x-x-x-x-2-|
|-------------|----------------|-------------|


 Ooooooooh_____________________________
|------------0-----|-0-----0----(0)----|
|--------------4---|---4---4----(4)----|
|---------2------4-|-----4-4----(4)----|
|-----1-2-2--------|-------------------|
|-(2)-----0--------|-------------------|
|------------------|-------------------|
                                                                    (2/4)
|---------0-----|-0-----0----(0)-|---------0-----|-0-----0----(0)--|---------||
|-----------4---|---4---4----(4)-|-----------4---|---4---4----(4)--|---------||
|------2------4-|-----4----------|------2------4-|-----4-----------|---------||
|-4----2--------|----------------|-4----2--------|-----------------|-----5-4-||
|-2----0--------|----------------|-2----0--------|-----------------|-----5-4-||
|---------------|----------------|---------------|-----------------|-----3-2-||


Interlude

|-----------------------------|-----------------------------|
|-----------------------------|-----------------------------|
|-------------------------2-4-|-------------------------9-8-|
|-------6p2---------6p2---2-4-|-------6p2---------6p2---9-8-|
|-4p2h4-----6p4p2-4-----6-0-2-|-4p2h4-----6p4p2-4-----6-7-6-|
|-----------------------------|-----------------------------|

|------------------------------|
|------------------------------|
|-------------------------2-4--|
|-------6p2---------6p2---2-4--|
|-4p2h4-----6p4p2-4-----6-0-2--|
|------------------------------|

|-----------|-----------------------------|-----------------------------|
|-----------|-----------------------------|-----------------------------|
|-2----4----|-------------------------2-4-|-------------------------9-8-|
|-2----4----|-------6p2---------6p2---2-4-|-6-----6p2---------6p2---9-8-|
|-0----2----|-4p2h4-----6p4p2-4-----6-0-2-|-4p2h4-----6p4p2-4-----6-7-6-|
|-----------|-----------------------------|-----------------------------|

|-----------------------------|-----|---------------|
|-----------------------------|-----|---------------|
|-------------------------2-4-|-2---|-4-------------|
|-6-----6p2---------6p2---2-4-|-2---|-4-------------|
|-4p2h4-----6p4p2-4-----6-0-2-|-0---|-2-------------|
|-----------------------------|-----|---------------|

Solo

|-----------------------------|
|-----------------------------|
|-----------------------------|
|-----------------------------|
|-------11p7----------11p7----|
|-9p7h9------11p9p7-9------11-|

|-------------------------------|-----------------------------|
|----------12-------------------|-10-12-12-12-12----12-10-10--|
|-12S14----------13----11-13----|--9S11-11-11-11h13-13S11-11--|
|-------14----14----14-------14-|-----------------------------|
|-------------------------------|-----------------------------|
|-------------------------------|-----------------------------|

|-11b13-11b13r7--------------11----11----12----14-12-11----12----|
|---------------12b14r10-9-9-14b16-14b16-15b17-------14b16----14-|
|----------------------------------------------------------------|
|----------------------------------------------------------------|
|----------------------------------------------------------------|
|----------------------------------------------------------------|

|-------------5-4---7-5-4-5-------------|
|-----4-5---------7---------5-----4-5---|
|-4-6-----6-4-----------------4-6-----6-|
|---------------------------------------|
|---------------------------------------|
|---------------------------------------|

|---|-------------------|-14-16-17-14-16-17-|-------------------|
|---|-14-16-17-14-16-17-|-------------------|-16-17-19-16-17-19-|
|-4-|-------------------|-------------------|-------------------|
|---|-------------------|-------------------|-------------------|
|---|-------------------|-------------------|-------------------|
|---|-------------------|-------------------|-------------------|

|-16-17-19-16-17-19-|-------------------|-17-19-21--|
|-------------------|-17-19-21-17-19-21-|-----------|
|-------------------|-------------------|-----------|
|-------------------|-------------------|-----------|
|-------------------|-------------------|-----------|
|-------------------|-------------------|-----------|

|-17-19-21-|-------------------|-19-21-23-19-21-23-|
|----------|-19-21-22-19-21-22-|-------------------|
|----------|-------------------|-------------------|
|----------|-------------------|-------------------|
|----------|-------------------|-------------------|
|----------|-------------------|-------------------|

|-------------------|-21-23-24-21-23-24-21-23-24-21-23-24b28-------21-|
|-21-22-24-21-22-24-|----------------------------------------21b23----|
|-------------------|-------------------------------------------------|
|-------------------|-------------------------------------------------|
|-------------------|-------------------------------------------------|
|-------------------|-------------------------------------------------|

|-------19-19----19----19----------|-------------------|
|-19b21----19b21-19b21-19b21-19b21-|-19-17-16-17-16-16-|
|----------------------------------|-------------------|
|----------------------------------|-------------------|
|----------------------------------|-------------------|
|----------------------------------|-------------------|

|-------------------|------------------|----------------------|-----------|
|-16h17-16h17-16S14-|-12h14-12h14-12S9-|--------------9-12b14-|----5---4--|
|-------------------|------------------|-11p9----9h11---------|-/6---6----|
|-------------------|------------------|------11--------------|-----------|
|-------------------|------------------|----------------------|-----------|
|-------------------|------------------|----------------------|-----------|

|-------|-7b9------------12b14-11-11-11-11-|-----------------------------------|
|-5-4---|-----12b14r9----------------------|-12-12-12p9-12----12----12---------|
|-----6-|-------------11-------------------|------------11b13-11b13-11b13r9----|
|-------|----------------------------------|--------------------------------11-|
|-------|----------------------------------|-----------------------------------|
|-------|----------------------------------|-----------------------------------|

|-9S11-11-11-11S12-12-|-12-12S14-14-14-14S16-|
|---------------------|----------------------|
|-6S=8--8--8--8S=9--9-|--9--9S11-11-11-11S13-|
|---------------------|----------------------|
|---------------------|----------------------|
|---------------------|----------------------|

~
|-16-16S17-17-17S16-16-16-|---------9---9-----------|
|-------------------------|---------7b9---7pb9r=====|
|-13-13S14-14-14S13-13-13-|-9-7h8p7------------9----|
|-------------------------|-------------------------|
|-------------------------|-------------------------|
|-------------------------|-------------------------|

Chorus

|-------------|----------------|-------------|-------------------|
|-------------|----------------|-------------|-------------------|
|-------------|----------------|-------------|---------2---------|
|-6---------4-|---6------------|-6-----------|-----1-2-2---------|
|-4-x-x-x-x-4-|---4---4----0-2-|-4-x-x-x-x-2-|-(2)-----0--0-2-0--|
|-------------|----------------|-------------|-------------------|

|-------------|----------------|-------------|-------------------|
|-------------|----------------|-------------|-------------------|
|-------------|----------------|-------------|---------2---------|
|-6---------4-|---6------------|-6-----------|-----1-2-2---------|
|-4-x-x-x-x-4-|---4---4----0-2-|-4-x-x-x-x-2-|-(2)-----0--0-2-0--|
|-------------|----------------|-------------|-------------------|

                          i like to walk yeah i doooo___________
|-------------|----------------|-------------|-------------------|
|-------------|----------------|-------------|-------------------|
|-------------|----------------|-------------|---------2---------|
|-6---------4-|---6------------|-6-----------|-----1-2-2---------|
|-4-x-x-x-x-4-|---4---4----0-2-|-4-x-x-x-x-2-|-(2)-----0--0-2-0--|
|-------------|----------------|-------------|-------------------|

               thats the way i like it baby
|-------------|----------------|-------------|
|-------------|----------------|-------------|
|-------------|----------------|-------------|
|-6---------4-|---6------------|-6-----------|
|-4-x-x-x-x-4-|---4---4----0-2-|-4-x-x-x-x-2-|
|-------------|----------------|-------------|


 Ooooooooh_____________________________
|------------0-----|-0-----0----(0)----|
|--------------4---|---4---4----(4)----|
|---------2------4-|-----4-4----(4)----|
|-----1-2-2--------|-------------------|
|-(2)-----0--------|-------------------|
|------------------|-------------------|
 Ooooooooh________________________________________ Binge and grab
|---------0-----|-0-----0----(0)-|---------0-----|-0-----0----(0)--|
|-----------4---|---4---4----(4)-|-----------4---|---4---4----(4)--|
|------2------4-|-----4----------|------2------4-|-----4-----------|
|-4----2--------|----------------|-4----2--------|-----------------|
|-2----0--------|----------------|-2----0--------|-----------------|
|---------------|----------------|---------------|-----------------|





Comments


Popular Deli Creeps tabs & chords
Can I Have A Ride Tabs
Chores Intro Tabs
Flesh For The Beast Tabs
Grampa Bill Intro Tabs
Time Tabs


Song lyrics



↑ Back to top | Tablatures and chords are parodies/interpretations of the original songs. You may use it for private study, scholarship, research or language learning purposes only
© 2014 AZChords.com Contact us | Privacy policy | DMCA | Add/correct tabs | Request tabs | Top 50 tabs