» » »

Delgados, I Fought The Angels Tabs (ver.1)

Artists:  A B C D E F G H I J K L M N O P Q R S T U V W X Y Z # 

I Fought The Angels Tabs (ver.1)

Delgados Tabs
 Rating:
4.5/5 (8 votes)
I Fought The Angels lessons Tabs too difficult? Try these video lessons and learn fast
                Band - The Delgados
Song - I Fought the Angels
Album - Universal Audio (2004)
Guitarist - Alun
Tuning - Standard (E A D G B e)

Notes:

The Timing changes from 4 to 2 every once in a while.
                        4    4

Strum pattern is  then quickly mute the strings with your palm.


Riff A:


Dm       Bb       F       A        A
|1-1-11--1-1-11--|1-1-11-x0-0-00--|0-0-00--|
|3-3-33--3-3-33--|1-1-11-x2-2-22--|2-2-22--|
|2-2-22--3-3-33--|2-2-22-x2-2-22--|2-2-22--|
|0-0-00--0-0-00--|3-3-33-x2-2-22--|2-2-22--|
|----------------|----------------|--------|
|----------------|----------------|--------|
 1 & 2e  3 & 4e   1 & 2e a3 & 4e   1 & 2e  


Riff B:


Dm       Bb       F       A
|1-1-11--1-1-11--|1-1-11-x0-0-00--|
|3-3-33--3-3-33--|1-1-11-x2-2-22--|
|2-2-22--3-3-33--|2-2-22-x2-2-22--|
|0-0-00--0-0-00--|3-3-33-x2-2-22--|
|----------------|----------------|
|----------------|----------------|
 1 & 2e  3 & 4e   1 & 2e a3 & 4e

Add C:

Add this to the end of the last riff played
 A
|0-0-00--|
|2-2-22--|
|2-2-22--|
|2-2-22--|
|--------|
|--------|
 1 & 2e  



Riff A X5
Riff B X1
Riff A X1
Riff A X4 (Drums kick in)
riff B X1
Riff A X1 Add C
Riff A X2
Riff B X5
Riff A X1 Add C
            
Submit corrections

comments powered by Disqus
↑ Back to top | Delgados Tabs for I Fought The Angels. Lyrics for acoustic guitar and electric guitar. Tablatures and chords are parodies/interpretations of the original songs. You may use it for private study, scholarship, research or language learning purposes only