» » »

Deftones, Minus Blindfold Tabs (ver.1)

Artists:  A B C D E F G H I J K L M N O P Q R S T U V W X Y Z # 

Minus Blindfold Tabs (ver.1)

Deftones Tabs
 Rating:
4/5 (4 votes)
Minus Blindfold lessons Tabs too difficult? Try these video lessons and learn fast
                Minus Blindfold-Deftones

Riff 1   |...1-3.....  |...4.......   |..last...
e||-------------------||-------------||---------||
b||------0-----0------||------0------||---------||   (#) means ring out
G||----0-----0---0----||----0---0----||---------||   could play it for
D||--2-----4------(4)-||--3------(3)-||---------||   fluid motion
A||-------------------||-------------||--2-2-2--||
E||-------------------||-------------||--0-0-0--||

Riff 2							  Fill 1
e||-------------------------------------0--||-----||-----------------------||
b||----------------------------------0--||-----||-----------||
G||----------------------------------0--||-----||-----------||
D||-----------------3----------------0--||--2--||-----------||
A||--2-4-4-2--2-4-5-1-5-4---------------2--||--2--||-----------------------||
E||--0-2-2-0--0-2-3---3-2--0-2-2--0-0-2-3--||--0--||--x--------------------||

Riff 3	                    Fill 2
e||-----------------------||-----------------------||
b||--------------||--------------------||  are harmonics
G||--------------||--------------------|| # fret is the general 
D||--------------||--------------------|| location of the
A||--2-2--2-2-------------||--2-2-2-2--------------|| harmonic
E||--0-0--0-0-------------||--0-0-0-0--------------||
Harmonics tacit last time

Fill 3		  Riff 4.........   ..last time...
e||--0//------||----------------||----------------||
b||--0//------||----------------||----------------||
G||--0//------||----------------||----------------||
D||--4//------||----------------||------------3---||
A||--4//------||------1---------||------1-----3---||
E||--2//------||--3-3----1-111--||--3-3----1--1---||
		 PM..............   PM.....

End riff		  Fill 4       Tag Riff
e||------------------||-----------||--------||
b||---------------||-----------||--------||
G||---------------||-----------||------------||
D||---------------||-----------||------------||
A||--2-2----2--------||--33-11-0--||-2-2--2-2---||
E||--0-0-00-0--x-----||-----------||-0-0--0-0---||

Order:
Riff 1(3x w/ "last")-Riff 2(2x)-Fill 1-Riff 1(2x)-Riff 3(4x)
Riff 1(2x)-Riff 2(4x)-Fill 2-Riff1(2x)-Riff 3(4x)
Riff 1(2x w/ "last")-Riff 2(4x)-Fill 3-Riff 4(14x + "last time")
Riff 2(4x w/o "E")-End Riff(4x-4th use Fill4 instead of harmonics)
End riff(3x) tag riff
Sorry no lyrics in the CD booklet. Maybe next time.

James-

"Every day confronted-sick of friends giving in-I just wanna know why"-KoRn
            
Submit corrections

comments powered by Disqus
↑ Back to top | Deftones Tabs for Minus Blindfold. Lyrics for acoustic guitar and electric guitar. Tablatures and chords are parodies/interpretations of the original songs. You may use it for private study, scholarship, research or language learning purposes only