» » »

Deftones, Drive Tabs (ver.1)

Artists:  A B C D E F G H I J K L M N O P Q R S T U V W X Y Z # 

Drive Tabs (ver.1)

Deftones Tabs
 Rating:
4/5 (4 votes)
Drive lessons Tabs too difficult? Try these video lessons and learn fast
                This is an accoustic bonus track from Deftones Saturday Night Wrist CD.  Its a cover 
wrote by an 80's band called "the cars".
Great song.  Tuned a half step down to Drop D.
If you bought the cd at target you could download this song off i-tunes.
Hope you like it.


Verse
|---------------|
|---------------|
|-5------4------|
|-5-x16--5-x16--|
|-3------3------|
|---------------|


Chorus
|--------------------------|
|--------------------------|
|--------------------------|
|-7-----0-----7-----0------|
|-7-x16-0-x16-7-x16-0-x16--|
|-7-----0-----7-----0------|


Bridge
|--------------------------|
|--------------------------|
|--------------------------|
|-7-----0-----2-----3------|
|-7-x16-0-x16-2-x16-3-x16--|
|-7-----0-----2-----3------|
            
Submit corrections

comments powered by Disqus
↑ Back to top | Deftones Tabs for Drive. Lyrics for acoustic guitar and electric guitar. Tablatures and chords are parodies/interpretations of the original songs. You may use it for private study, scholarship, research or language learning purposes only