» » »

Def Leppard, Armageddon Bass tabs (ver.1)

Artists:  A B C D E F G H I J K L M N O P Q R S T U V W X Y Z # 

Armageddon Bass tabs (ver.1)

Def Leppard Tabs
 Rating:
3.7/5 (6 votes)
Armageddon lessons Tabs too difficult? Try these video lessons and learn fast
1
                Def Leppard   tabbed out by saturns_bassman
Armageddon It Bass Tab

Intro:
x1
             *=let it ring
g|---------||
d|---------||
a|---------||  
e|-0*--0*--||   
                
part two of intro:       play all E parts on third time then switch to this
 x1                                  _ _ _ _ _                           
g|---------------------------------|------||
d|---------------------------------|------||
a|--------------------3-3-3--------|-3-2--||
e|-0-0-0-0--0-0-0-0-5-------3-3-3-0|-----0||

verse:
x1
play this 17 (or 18) times(E part only)then change to other part of verse
g|---------|------------------------------------------------------||<----|
d|---------|------------------------------------------------------||
a|---------|---------3-3-3-------------------------------------3-2||
e|-0-0-0-0-|-0-0-0-0-------3-3-3-3-0-0-0-0-0-0-0-0-0-0-0-0-0-0----||

then after both parts of verse and and E riff change to this before the bridge:
x1
"you know ya....cant stop it....so dont rock it....yo know ya got it...."
(play notes in between words)
g|-----------------------------------------------------------------------||
d|-----------------------------------------------------------------------||
a|-----------3---------------3------------------3---------------------3-2||
e|----------------------------------------------------------------------0||

bridge:
x1
g|----------------------------------------||
d|----------------------------------------||
a|-2222-2222-2222-2222-2222-2222-2222-2222||
e|----------------------------------------||

chorus:                    only on first time
x2                                   _ _ _ _ _ 
g|---------------------------------|--------|-----||
d|---------------------------------|--------|-----|| play this on last time
a|-3333---555-777-5555-3333----5555|--------|-6-2-|| <--------|
e|-----333-----------------333-----|-333-5-7|----0||        

play this after solo and big chorus part
x1
                        \ slide down to nut
g|----------------------||
d|----------------------||
a|-3332----3332---------||
e|-------5------7-6-9-8\||

Song Structure:
intro x1
verse x1
play little part before bridge x1
bridge x1
chorus x2
part two of intro x1
verse x1
play little part before bride x1
bridge x1
chorus x2
for solo play verse(listen toknow how to end it)x as much as possible
bridge x1
chorus x2 
then part after the solo and chorus part x1 
chorus x5
(fade out)


hope you all out there enjoy playing this one i know i do!!!!!
            
Submit corrections

comments powered by Disqus
↑ Back to top | Def Leppard Bass for Armageddon. Lyrics for acoustic guitar and electric guitar. 1 Tablatures and chords are parodies/interpretations of the original songs. You may use it for private study, scholarship, research or language learning purposes only