» » »

Smoke On The Water Tabs (ver.1)

Artists:  A B C D E F G H I J K L M N O P Q R S T U V W X Y Z # 

Smoke On The Water Tabs (ver.1)

Deep Purple
Rating:
0/5 (0 votes)

Hard to play? Try these video lessons and learn fast.
                Really cool and popular intro


|----------|  
|----------|  
|----------|  
|--2-------|  
|--2--5--7-|  
|--2--3--5-|  





|-------------|
|-------------|
|-------------|
|--2----------|
|--2--5--8--7-|
|--2--3--6--5-|




|---------------|
|---------------|
|---------------|
|--2-----------2|
|--2--5--7--5--2|
|--2--3--5--3--2|


or u could play it the bass kind of way.



|--------------------------------------|
|--------------------------------------|
|--------------------------------------|
|--------------------------------------|
|--0--3--5---0--3--6--5---0--3--5--3--0|
|--------------------------------------|

This can be played on the bottom string to get an even more bass sound.



Easy and good intro 


                                         PLEASE
                                         RATE!!!

Thanx and enjoy
            
Hard to play? Try these video lessons and learn fast. | Correct




comments powered by Disqus
↑ Back to top | Tablatures and chords are parodies/interpretations of the original songs. You may use it for private study, scholarship, research or language learning purposes only