>
 >
Perfect Strangers 1

Perfect Strangers 1 Guitar Tabs

Deep Purple - Perfect Strangers 1 chords, tabs, tablatures, lyrics

Guitar lessons | Add/correct | Request | Top 50 tabs Artists:  A B C D E F G H I J K L M N O P Q R S T U V W X Y Z 0-9

Perfect Strangers 1 Guitar Tabs – Deep Purple

CD, Sheet music, Poster

Do you like Perfect Strangers 1? Share with your friends now
Bass TabsChordsTabsTabs v2Ukulele
Deep Purple: Perfect Strangers (Perfect Strangers, 1984)

Guitar: Ritchie Blackmore
Bass Guitar: Roger Glover
Drums: Ian Paice
Vocals: Ian Gillian
Keyboards: Jon Lord


Intro: Organ

After Lord's Intro:
E|----------------------------------------|
B|----------------------------------------|
G|-----5--7---------5--7---10---12--12----|  X3 
D|-----5--7---------5--7---10---12--12----|
A|-----3--5---------3--5---8----10--10----|
E|----------------------------------------|




E|---------------------------------------------|
B|---------------------------------------------|
G|----2----2---0-------------------------------| X4 
D|----2------------2---------------------------|
A|----0---------------------------0-3-0----0---|
E|-----------------------------3---------3-----|




E|----------------------------------------|
B|----------------------------------------|
G|-----5--7---------5--7---10---12--------| X3 
D|-----5--7---------5--7---10---12--------|
A|-----3--5---------3--5---8----10--------|
E|----------------------------------------|




E|---------------------------------------------|
B|---------------------------------------------|
G|----2----2---0-------------------------------| X4 
D|----2------------2---------------------------|
A|----0---------------------------0-3-0----0---|
E|-----------------------------3---------3-----|





E|-------------------------3---|
B|-------------------------3---|
G|----5------7-------------0---|
D|----5------7-----5-------5---|
A|----3------5-----5-------5---|
E|-----------------3-------3---|




E|-------------------------------------------
B|-------------------------------------------
G|------------------------------------------- X2
D|-----777---888-555----777-333--777-555-55--
A|---0-----0----------0----------------------
E|-------------------------------------------



E|--------------------------------------------------------------------|
B|--------------------------------------------------------------------|
G|--------------------------------------------------------------------|
D|-----777---888-555---777-333--777-555-333-222-000-------------------|
A|---0-----0---------0------------------------------333---------------|
E|--------------------------------------------------------------------|





E|----------------------------------------|
B|----------------------------------------|
G|-----5--7---------5--7---10---12--------| X3  
D|-----5--7---------5--7---10---12--------|
A|-----3--5---------3--5---8----10--------|
E|----------------------------------------|





E|---------------------------------------------|
B|---------------------------------------------|
G|----2----2---0-------------------------------| X4 
D|----2------------2---------------------------|
A|----0---------------------------0-3-0----0---|
E|-----------------------------3---------3-----| 



E|-------------------------3----|
B|-------------------------3----|
G|----5------7-------------0----|
D|----5------7-----5-------5----|
A|----3------5-----5-------5----|
E|-----------------3-------3----|



E|----------------------------------------------|
B|----------------------------------------------|
G|----------------------------------------------| X2  
D|----------------------------------------------|
A|----777---888-555----777-333--777-555-55------|
E|--0-----0----------0--------------------------|



E|--------------------------------------------------------------------|
B|--------------------------------------------------------------------|
G|--------------------------------------------------------------------|
D|--------------------------------------------------------------------|
A|-----777---888-555---777-333--777-555-333-222-000-------------------|
E|---0-----0---------0------------------------------333---------------|



E|----------------------------------------------|
B|----------------------------------------------|
G|----------------------------------------------| Repeat till the end.  
D|----------------------------------------------|
A|----777---888-555----777-333--777-555-55------|
E|--0-----0----------0--------------------------|


Lautaro (3/6/2006)





Comments


Popular Deep Purple tabs & chords
Blind Bass Tabs
Sometimes I Feel Like Screaming Bass Tabs
Speed King Bass Tabs
Wasted Sunsets Bass Tabs
Dont Make Me Happy Chords
Drifter Tabs
Fools Tabs
Into The Fire 2 Tabs
Stormbringer Tabs
Writing That Neck Intro Tabs


Song lyrics



↑ Back to top | Tablatures and chords are parodies/interpretations of the original songs. You may use it for private study, scholarship, research or language learning purposes only
© 2014 AZChords.com Contact us | Privacy policy | DMCA | Add/correct tabs | Request tabs | Top 50 tabs