» » »

Deep Purple, Highway Star Tabs (ver.1)

Artists:  A B C D E F G H I J K L M N O P Q R S T U V W X Y Z # 

Highway Star Tabs (ver.1)

Deep Purple Tabs
 Rating:
4/5 (4 votes)
Highway Star lessons Tabs too difficult? Try these video lessons and learn fast
1
                with some parts from D. Whitehill (transcription)
and Daniel Tonya (tab) 

    Well, here its my version of this great solo the way I play it. 
Okay, I know that Dave Whitehill/Daniel Tonya's transcription/tab is the 
best around the net, but I thought that my own version could be a bit 
easier to play than the former. In fact, I took some parts from them 
(I'll indicate which parts) but added the 2nd guitar that makes the 
great harmony at the end of the solo. Enjoy!!


    PART 1                                                                                  
|------------------------------------|--------13b14--13--10-----------------|    
|---------13b15----------13b15-------|----------------------10--------------|    
|-----10-------------10--------10-~~-|-----10------------------10----12--10~|    
|-12-------------12------------------|--12------------------------12--------|    
|------------------------------------|--------------------------------------|    
|------------------------------------|--------------------------------------|

|------------------------------------|--------13b14--13--10-----------------|    
|--------13b15----------13b15--------|----------------------10--------------|    
|-----10-------------10--------10-~~-|-----10------------------10----12--10~|    
|-12-------------12------------------|--12------------------------12--------|    
|------------------------------------|--------------------------------------|    
|------------------------------------|--------------------------------------|
                                                                                                       
    PART 2                                                                         
|---------------------------------|--------5-----------------------------|    
|-8b10----8b10----8b10----8b10----|--8b10-----8--7---5-----5-----7--5----|    
|---------------------------------|---------------------7-----7--------7-|    
|---------------------------------|--------------------------------------|    
|---------------------------------|--------------------------------------|    
|---------------------------------|--------------------------------------|
                                                                                          
                                                                                    
|---------------------------------------------|-----------------------------|    
|--5~-------5----------5---------5b--5--------|--5-------------8b10---8b10--|    
|-------7------7---5------7---5---------7---5-|------7--5-~~----------------|    
|---------------------------------------------|-----------------------------|    
|---------------------------------------------|-----------------------------|    
|---------------------------------------------|-----------------------------|
                                                                                                 
                                             
|---------------------------------------|
|-8b10----8b10---8b10---8b10------------|
|---------------------------------------|
|---------------------------------------|
|---------------------------------------|
|---------------------------------------|


    PART 3                                                   
|-----------------------------------|----------------------------------|    
|---13b15--13---10------------------|---13b15--13---10-----------------|    
|-------------------10--------------|-------------------10-------------|    
|-----------------------12-~~-------|-----------------------12-~~------|    
|-----------------------------------|----------------------------------|    
|-----------------------------------|----------------------------------|
                                                                                          

                                                                                            
|-----------------------------------|----------------------------------|    
|---13b15--13---10------------------|---13b15--13---10-----------------|    
|-------------------10--------------|-------------------10-------------|    
|-----------------------12-~~-------|-----------------------12-~~------|    
|-----------------------------------|----------------------------------|    
|-----------------------------------|----------------------------------|
                                                                                          
                                                                              
|-----------------------------------|----------------------------------|
|---15b17---15--12------------------|---15b17---15--12-----------------|
|-------------------12--------------|-------------------12-------------|
|-----------------------14-~~-------|-----------------------14-~~------|
|-----------------------------------|----------------------------------|
|-----------------------------------|----------------------------------|
                                                                                          
                                                                                            
|---10------11------12-------13---------|
|---12b14---13b15-- 14b16----15b17------|
|---------------------------------------|
|---------------------------------------|
|---------------------------------------|
|---------------------------------------|
                      
                                                                            
    THEN GTR. 2 PLAYS THIS WHILE GTR. 1 PLAYS PART 3

                                                                                             
|---13b15--13---10-----------------|---13b15--13---10---------------13b15-|    
|-------------------10-------------|-------------------10-----------------|    
|-----------------------10-~~------|-----------------------10-~~----------|    
|----------------------------------|--------------------------------------|    
|----------------------------------|--------------------------------------|    
|----------------------------------|--------------------------------------|

                                                                                          
|---13b15--13---10-----------------|---13b15--13---10---------------15b17-|    
|-------------------10-------------|-------------------10-----------------|    
|-----------------------10-~~------|-----------------------10-~~----------|    
|----------------------------------|--------------------------------------|    
|----------------------------------|--------------------------------------|    
|----------------------------------|--------------------------------------|         

           
|---15b17--15---12-----------------|---15B17--15---12------------------|    
|-------------------12-------------|-------------------12--------------|    
|-----------------------12-~~------|-----------------------12-~~-------|    
|----------------------------------|-----------------------------------|    
|----------------------------------|-----------------------------------|    
|----------------------------------|-----------------------------------|     

                     
|---10------11------12-------13---------|
|---13b15---14b16---15b17----16b18------|
|---------------------------------------|
|---------------------------------------|
|---------------------------------------|
|---------------------------------------|



            
E||-5-6-8-8-5-6-8-8-5-6-8-8-5-6-8-8-|-5-6-8-8-5-6-8-8-5-6-8-8-5-6-8-8-||
B||---------------------------------|---------------------------------||
G||---------------------------------|---------------------------------||
D||---------------------------------|---------------------------------||
A||---------------------------------|---------------------------------||
E||---------------------------------|---------------------------------||

E|| -6-8-10-10-6-8-10-10-6-8-10-10-6-8-10-10-|
B|| -----------------------------------------|
G|| -----------------------------------------|
D|| -----------------------------------------|
A|| -----------------------------------------|
e|| -----------------------------------------|

E|| -6-8-10-10-6-8-10-10-6-8-10-10-6-8-10-10-|
B|| -----------------------------------------|
G|| -----------------------------------------|
D|| -----------------------------------------|
A|| -----------------------------------------|
e|| -----------------------------------------|

E|| -8-10-12-12-8-10-12-12-8-10-12-12-8-10-12-12-|
B|| ---------------------------------------------|
G|| ---------------------------------------------|
D|| ---------------------------------------------|
A|| ---------------------------------------------|
e|| ---------------------------------------------|

E|| -8-10-12-12-8-10-12-12-8-10-12-12-8-10-12-12-|
B|| ---------------------------------------------|
G|| ---------------------------------------------|
D|| ---------------------------------------------|
A|| ---------------------------------------------|
e|| ---------------------------------------------|


E|| 17-17-0-0-15-14-0-0-14-13-0-0-13-12-0-0-|
B|| ----------------------------------------|
G|| ----------------------------------------|
D|| ----------------------------------------|
A|| ----------------------------------------|
e|| ----------------------------------------|

E||-12-11-0-0-11-10-0-0-10-9-0-0-9-8-0-0-||
B||--------------------------------------||
G||--------------------------------------||
D||--------------------------------------||
A||--------------------------------------||
e|| -------------------------------------||


        PART 5:

        GTR. 1: (WHITEHILL TAB)

E||-5-6-8-8-5-6-8-8-5-6-8-8-5-6-8-8--||
B||----------------------------------||
G||----------------------------------||
D||----------------------------------||
A||----------------------------------||
e||----------------------------------||


E|-5-6-8-8-5-6-8-8-5-6-8-8-5-6-8-8-|-6-8-10-10-6-8-10-10-6-8-10-10-6-8-10-10|
B|---------------------------------|----------------------------------------|
G|---------------------------------|----------------------------------------|
D|---------------------------------|----------------------------------------|
A|---------------------------------|----------------------------------------|
E|---------------------------------|----------------------------------------|

E|| --6-8-10-10-6-8-10-10-6-8-10-10-6-8-10-10-|
B|| ------------------------------------------|
G|| ------------------------------------------|
D|| ------------------------------------------|
A|| ------------------------------------------|
e|| ------------------------------------------|

E||--8-10-12-12-8-10-12-12-8-10-12-12-8-10-12-12-|
B||----------------------------------------------|
G||----------------------------------------------|
D||----------------------------------------------|
A||----------------------------------------------|
e||----------------------------------------------|

E||--8-10-12-12-8-10-12-12------10-12-12-12-13-15-16-|
B||--------------------------------------------------|
G||--------------------------------------------------|
D||--------------------------------------------------|
A||--------------------------------------------------|
e||--------------------------------------------------|

E||-17-17-0-0-15-14-0-0-14-13-0-0-13-12-0-0-|
B||-----------------------------------------|
G||-----------------------------------------|
D||-----------------------------------------|
A||-----------------------------------------|
e|| ----------------------------------------|

                                         (NOTE THAT I'VE MODIFIED THIS 
PART
                                         FROM THE ORIGINAL TAB:)

E|12-11-0-0-11-10-0-0-10-9-0-0-9-8-0-0-|-8-7-0-0-7-6-0-0-6-5-0-0-5-4-0-0-|
B|-------------------------------------|---------------------------------|
G|-------------------------------------|---------------------------------|    
D|-------------------------------------|---------------------------------|    
A|-------------------------------------|---------------------------------|    
e|-------------------------------------|---------------------------------|


E|--4-3-0-0-3-2-0-0-2-2-0-0-3-3-0-0-|-4-4-0-0-5-5-0-0-6-6-0-0-7-7-0-0-|
B|----------------------------------|---------------------------------|
G|----------------------------------|---------------------------------|
D|----------------------------------|---------------------------------|
A|----------------------------------|---------------------------------|
e|----------------------------------|---------------------------------|


GTR. 2: (ONLY FIRST AND 2ND. STRINGS TRANSCRIBED)

e||--8-10-12-12-8-10-12-12-8-10-12-12-8-10-12-12-||
B||----------------------------------------------||

e||--8-10-12-12-8-10-12-12-8-10-12-12-8-10-12-12-||
B||----------------------------------------------||

e||--10-12-13-13-10-12-13-13-10-12-13-13-10-12-13-13-||
B||--------------------------------------------------||
        
e||--10-12-13-13-10-12-13-13-10-12-13-13-10-12-13-13-||
B||--------------------------------------------------||

e||--12-13-15-15-12-13-15-15-12-13-15-15-12-13-15-15-||
B||--------------------------------------------------||

e||--12-13-15-15-12-13-15-15-12-13-15-15-12-13-15-15-||
B||--------------------------------------------------||

e||-20-20-0-0-18-17-0-0-17-16-0-0-16-15-0-0-|
B|| ----------------------------------------|

|15-14-0-0-14-13-0-0-13-12-0-0-12-11-0-0-|-11-10-0-0-10-9-0-0-9-8-0-0-8-7-0-0-|
|----------------------------------------|------------------------------------|

e|--7-6-0-0-6-5-0-0-5-4-0-0-4-3-0-0-|-3-2-0-0-2-2-0-0-3-3-0-0-4-4-0-0--|
B|----------------------------------|----------------------------------|


FINALLY FOLLOW THE OUTRO BY WHITEHILL. SALUDOS A TODOS LOS THRASHERS, 
METALEROS Y ROCKEROS DE MEXICO, Y EN ESPECIAL DE SONORA, CABRONES!!!


LEGEND:

e|---12----|
B|---14b16-|				UNISON BEND

e|---12b14-|    BEND IN FRET 12TH 'TIL REACH THE NOTE IN FRET 14TH.
B|---------|

    ~~									 VIBRATO

    5b 									BEND A QUARTER NOTE


Any comments, errors or suggestions?

Ciudad de Mexico, 7 de mayo de 1998.
            
Submit corrections

comments powered by Disqus
↑ Back to top | Deep Purple Tabs for Highway Star. Lyrics for acoustic guitar and electric guitar. 1 Tablatures and chords are parodies/interpretations of the original songs. You may use it for private study, scholarship, research or language learning purposes only