» » »

Deep Purple, Child In Time Organ Tabs (ver.1)

Artists:  A B C D E F G H I J K L M N O P Q R S T U V W X Y Z # 

Child In Time Organ Tabs (ver.1)

Deep Purple Tabs
Rating:
0/5 (0 votes)
Child In Time Organ lessons Tabs too difficult? Try these video lessons and learn fast
                (Intro)
Child in time
 
Deep Purple

guitar arranged for organ

E||------------------|-------------------------|----------------1--------|-----------------------------|
B||------------------|-------------------------|------------3-5---5------|-----5--3---5-3-5-3----------|
G||------------------|-----5--4-2--------------|-----2--4-5--------------|----------5---------5-5------|
D||------------------|------------5-3-5-2------|-------------------------|-----------------------------|
A||------------------|-------------------------|-------------------------|-----------------------------|
E||------------------|-------------------------|-------------------------|-----------------------------|


                                                                                                               
-------------------------|-----5--7-8-----5-5------|----5-4-1----5-4-1------------|---------------------------|
-------------------------|------------8-8----------|----------5--------5-----3----|--3------------------------|
-----5--4-2-----2-2------|-------------------------|----------------------------5-|------4--2----2-4----------|
------------5-5----------|-------------------------|------------------------------|------------5-----5-5------|
-------------------------|-------------------------|------------------------------|---------------------------|
-------------------------|-------------------------|------------------------------|---------------------------|


                                                                                                     
-----------------------------------|----------------------------|-----------------------5-------5---|
-----------------------------------|----------------------------|-----------------5---5---6---6---6-|
-----------------------------------|----------------------------|--------2-5--2-5---5-------5-------|
-----3-2-------2-------------------|--------------------2-3-2---|--2---2----------------------------|
---------5-------5-3-5-3-2-3-2-----|--------------2-3-5-------5-|-----------------------------------|
-------------------------------5-3-|--5---------5---------------|-----------------------------------|
            
Submit corrections

comments powered by Disqus
↑ Back to top | Deep Purple Tabs for Child In Time Organ. Lyrics for acoustic guitar and electric guitar. Tablatures and chords are parodies/interpretations of the original songs. You may use it for private study, scholarship, research or language learning purposes only