» » »

Debussy Claude, Claire De Lune Tabs (ver.1)

Artists:  A B C D E F G H I J K L M N O P Q R S T U V W X Y Z # 

Claire De Lune Tabs (ver.1)

Debussy Claude Tabs
Rating:
0/5 (0 votes)
Claire De Lune lessons Tabs too difficult? Try these video lessons and learn fast
                Claire de Lune
Claude Debussy



|---------------------|------------------|--------1------1-|-3--1----------|
|----------------2----|------------------|-2---4-----2---2-|-4--2--2--2----|
|--1---------4--------|-1---------4----1-|-----------------|-------3--3----|
|---------------------|------------------|-----------------|---------------|
|---------------------|------------------|-----------------|---------------|
|---------------------|------------------|-----------------|---------------|


|---------------------|------------------|-2---------------|-6-------4-----|
|-----------------6---|----------------6-|---------6--3--4-|---------------|
|-3----------5--------|-3---------5------|-----------------|---------------|
|---------------------|------------------|-----------------|---------------|
|---------------------|------------------|-----------------|---------------|
|---------------------|------------------|-----------------|---------------|


|-4----------7----9---|-4---------7------|-------9--12--16-|-16------14----|
|---------------------|----------------9-|-----------------|---------------|
|---------------------|------------------|-----------------|---------------|
|---------------------|------------------|-----------------|---------------|
|---------------------|------------------|-----------------|---------------|
|---------------------|------------------|-----------------|---------------|


|-14-------17----21---|------------------|-12--11--9--7--5------4--2-------|
|---------------------|---------------14-|-14--12-10--9--7------5--4-------|
|---------------------|----------14------|---------------------------------|
|---------------------|-16---------------|---------------------------------|
|---------------------|------------------|---------------------------------|
|---------------------|------------------|---------------------------------|


|-------------------------------||
|-5--4--2-----------------------||
|-6--4--2---4--2--1-------------||
|-----------6--4--2------4--2---||
|------------------------6--4---||
|-------------------------------||


ending 1

|---------------------------------------|
|---------------5h7p5-------------------|
|----------2--6-------6-----------------|
|-----2--4--------------7-4---4---------|
|---4-----------------------7---7-4-----|
|-2---------------------------------5-2-|


ending 2

|-------------------------------------------------------|
|-------------------17h19p17----------------------------|
|-------------14-18----------18-------------------------|
|-------14-16-------------------19-16----16-------------|
|----16-------------------------------19----19-16-------|
|-14----------------------------------------------17-16-|
            
Submit corrections

comments powered by Disqus
↑ Back to top | Debussy Claude Tabs for Claire De Lune. Lyrics for acoustic guitar and electric guitar. Tablatures and chords are parodies/interpretations of the original songs. You may use it for private study, scholarship, research or language learning purposes only